» » »

Royal Blood - I Only Lie When I Love You Tabs

Artists:  A B C D E F G H I J K L M N O P Q R S T U V W X Y Z # 

I Only Lie When I Love You Tabs

(ver. 1) Click to play this song!
Royal Blood
 Rating:
4.4/5 (14 votes)


 I Only Lie When I Love You  lessons Tabs too difficult? Try these video lessons and learn fast
 
                Drop C# tuning.

Eb|-----------------------------------------------------------------------------------------------|
Bb|-----------------------------------------------------------------------------------------------|
Gb|-----------------------------------------------------------------------------------------------|
Db|-----------------------------------------------------------------------------------------------|
Ab|-----------------3-----------------------3-----------------------------------------------3-----|
Db|--0--0--0--3--5-----0-----0--0--0--3--5-----0-----3--3--3--3--7--7--7--7--0--0--0--3--5-----0--| x3

Eb|-------------------------------------------------------------------------------------------------------|
Bb|-------------------------------------------------------------------------------------------------------|
Gb|-----------------------------------------------------------------------------------------5-------------|
Db|--------------------------------------------------------------------------------6--5--3----------------|
Ab|----------------------------8-----------------5\0-------------------------------------------3h5p3h5p3--|
Db|--5--5--5--3--5/7--5-----------0--0--0--3--5-------------5--5--5--3--5/7--5----------------------------|

Eb|-----------------------------------------------------------------------------|
Bb|-----------------------------------------------------------------------------|
Gb|-----------------------------------------------------------------------------|
Db|-----------------------------------------------------------------------------|
Ab|----------------------------8-----------------5\0----------------------------|
Db|--5--5--5--3--5/7--5-----------0--0--0--3--5-------------5--5--5--3--5/7--5--|

Eb|------------------------------------------|
Bb|------------------------------------------|
Gb|------------------------------------------|
Db|------------------------------------------|
Ab|------------------------------------------|
Db|--5h6h7--7--8--8--10--10--11--11--11--11--|

Eb|--------------------------------------------------------------------------|
Bb|--------------------------------------------------------------------------|
Gb|--------------------------------------------------------------------------|
Db|--------------------------------------------------------------------------|
Ab|-----------------3-----------------------3--------------------------------|
Db|--0--0--0--3--5-----0-----0--0--0--3--5-----0-----3--3--3--3--7--7--7--7--| x2

Eb|-----------------------|
Bb|-----------------------|
Gb|-----------------------|
Db|-----------------------|
Ab|-----------------3-----|
Db|--0--0--0--3--5-----0--| (An octave lower. Use a pedal, or just play normally, up to you.)

Eb|-----------------------------------------------------------------------------------------------|
Bb|-----------------------------------------------------------------------------------------------|
Gb|-----------------------------------------------------------------------------------------------|
Db|-----------------------------------------------------------------------------------------------|
Ab|-----------------3-----------------------3-----------------------------------------------3-----|
Db|--0--0--0--3--5-----0-----0--0--0--3--5-----0-----3--3--3--3--7--7--7--7--0--0--0--3--5-----0--|

Eb|-------------------------------------------------------------------------------------------------------|
Bb|-------------------------------------------------------------------------------------------------------|
Gb|-----------------------------------------------------------------------------------------5-------------|
Db|--------------------------------------------------------------------------------6--5--3----------------|
Ab|----------------------------8-----------------5\0-------------------------------------------3h5p3h5p3--|
Db|--5--5--5--3--5/7--5-----------0--0--0--3--5-------------5--5--5--3--5/7--5----------------------------|

Eb|-----------------------------------------------------------------------------|
Bb|-----------------------------------------------------------------------------|
Gb|-----------------------------------------------------------------------------|
Db|-----------------------------------------------------------------------------|
Ab|----------------------------8-----------------5\0----------------------------|
Db|--5--5--5--3--5/7--5-----------0--0--0--3--5-------------5--5--5--3--5/7--5--|

Eb|------------------------------------------------------------------------------------------|
Bb|------------------------------------------------------------------------------------------|
Gb|------------------------------------------------------------------------------------------|
Db|------------------------------------------------------------------------------------------|
Ab|------------------------------------------------------------------------------------------|
Db|--5h6h7--7--8--8--10--10--11--11--7--7--8--8--10--10--11--11--7--7--8--8--11--11--14--14--|

Eb|-----------------------------------------------------------------------------------------|
Bb|-----------------------------------------------------------------------------------------|
Gb|-----------------------------------------------------------------------------------------|
Db|-----------------------------------------------------------------------------------------|
Ab|--------------------3--------------------3--------------------3--------------------3-----|
Db|--0--0--0--0--3--5-----0--0--0--0--3--5-----0--0--0--0--3--5-----0--0-----0--3--5-----0--|            
Submit corrections



        I Only Lie When I Love You  lessons Hard to play? Try these video lessons and learn fast I Only Lie When I Love You  lessons
        
↑ Back to top | Tablatures and chords for acoustic guitar and electric guitar, ukulele, drums are parodies/interpretations of the original songs. You may use it for private study, scholarship, research or language learning purposes only