» » »

Royal Blood - Dont Tell Tabs

Artists:  A B C D E F G H I J K L M N O P Q R S T U V W X Y Z # 

Dont Tell Tabs

(ver. 1) Click to play this song!
Royal Blood
 Rating:
4.4/5 (7 votes)


 Dont Tell  lessons Tabs too difficult? Try these video lessons and learn fast
 
                [Intro] 
(0:00)
D|---------------------------------------------------------------------------|
A|---------------------------------------------------------------------------|
F|---------------------------------------------------------------------------|
C|--------------------------------------5b--5-3-5\---------------------------|
G|------0h3p0-3---0h3p0-5----0h3p0-5\----------------------------------------|
C|--3------------------------------------------------------------------------|

D|---------------------------------------------------------------------------|
A|---------------------------------------------------------------------------|
F|---------------------------------------------------------------------------|
C|---------------------------------------------------------------------------|
G|------0h3p0-3---0h3p0------------------------------------------------------|
C|--3------------------------------------------------------------------------|

[Verse] 
(0:21)
D|---------------------------------------------------------------------------|
A|---------------------------------------------------------------------------|
F|---------------------------------------------------------------------------|
C|----------------------------------------5h7-3h5----------------------------| (x3) PM
G|-----3-5-3-3-3---5-3-3-3----3-5-3-3-3--------------------------------------|
C|--0----------------------0-------------------------------------------------|

D|---------------------------------------------------------------------------|
A|---------------------------------------------------------------------------|
F|---------------------------------------------------------------------------|
C|---------------------------------------------------------------------------| PM
G|-----3-5-3-3-3---5-3-3-3----3-5-3-3-3--------------------------------------|
C|--0----------------------0-------------------------------------------------|

[Chorus] 
(0:49)
D|---------------------------------------------------------------------------|
A|---------------------------------------------------------------------------|
F|---------------------------------------------------------------------------|
C|--------------------------------------5b--5-3-5\---------------------------|
G|------0h3p0-3---0h3p0-5----0h3p0-5\----------------------------------------|
C|--3------------------------------------------------------------------------|

D|---------------------------------------------------------------------------|
A|---------------------------------------------------------------------------|
F|---------------------------------------------------------------------------|
C|---------------------------------------------------------------------------|
G|------0h3p0-3---0h3p0------------------------------------------------------|
C|--3------------------------------------------------------------------------|

[Verse] 
(1:09)
D|---------------------------------------------------------------------------|
A|---------------------------------------------------------------------------|
F|---------------------------------------------------------------------------|
C|----------------------------------------5h7-3h5----------------------------| PM
G|-----3-5-3-3-3---5-3-3-3----3-5-3-3-3--------------------------------------|
C|--0----------------------0-------------------------------------------------|

D|---------------------------------------------------------------------------|
A|---------------------------------------------------------------------------|
F|---------------------------------------------------------------------------|
C|-----10-12-10-10-10--------------------------------------------------------| PM
G|---------------------------------3-5-3-3-3---------------------------------|
C|--0------------------5-3-3-3--0--------------3h5-2h3-----------------------|

D|---------------------------------------------------------------------------|
A|---------------------------------------------------------------------------|
F|---------------------------------------------------------------------------|
C|----------------------------------------5h7-3h5----------------------------| PM
G|-----------------5-3-3-3----3-5-3-3-3--------------------------------------|
C|--0----------------------0-------------------------------------------------|

D|---------------------------------------------------------------------------|
A|---------------------------------------------------------------------------|
F|---------------------------------------------------------------------------|
C|---------------------------------------------------------------------------| PM
G|-----------------5-3-3-3----3-5-3-3-3--------------------------------------|
C|--0----------------------0-------------------------------------------------|

[Chorus] 
(1:37)
D|---------------------------------------------------------------------------|
A|---------------------------------------------------------------------------|
F|---------------------------------------------------------------------------|
C|-------------------------------------5b--5-3-5\----------------------------|
G|------0h3p0-3---0h3p0-5---0h3p0-5\-----------------------------------------|
C|--3------------------------------------------------------------------------|

D|---------------------------------------------------------------------------|
A|---------------------------------------------------------------------------|
F|---------------------------------------------------------------------------|
C|---------------------------------------------------------------------------|
G|------0h3p0-3---0h3p0------------------------------------------------------|
C|--3------------------------------------------------------------------------|

[Bridge] 
(1:57)
D|---------------------------------------------------------------------------|
A|---------------------------------------------------------------------------|
F|---------------------------------------------------------------------------|
C|---------------------------------3-----------------------------------------|
G|-----------------------5-----3h5---5--0------------------------------------|
C|--5---5-8-5-8---8-10-8----0------------------------------------------------|

D|---------------------------------------------------------------------------|
A|---------------------------------------------------------------------------|
F|-----------------------------------------12b-12p10h-12\--------------------|
C|---------------------------------3-----------------------------------------|
G|-----------------------5-----3h5---5--0------------------------------------|
C|--5---5-8-5-8---8-10-8-----------------------------------------------------|

[Solo] 
(2:25)
D|------------------------------------------------------------------------------------------|
A|------------------------------------------------------------------------------------------|
F|------------17---------------------------------------------17-----------------------------|
C|--------17b----17b\-----------17-15br-15br--------------15b---15b\------------5b-5-3------|
G|-----------------------3-------------------------------------------------------------5-3--|
C|--3--3--------------------4b------------------0--0-3-0--------------0-0-3/12--------------|

D|----------------------------------------------------------------------------------------|
A|----------------------------------------------------------------------------------------|
F|--------------------------------------------------------22----21------------------------|
C|----------10----10\----------10----------------------19----19---------------5b-5-3------|
G|------/12----12----------/12----12--8-7-----------------------------------5--------5-3--|
C|--3-3-----------------10-----------------0--12-10-12---------------0--0-3---------------|

[Chorus] 
(2:52)
D|---------------------------------------------------------------------------|
A|---------------------------------------------------------------------------|
F|---------------------------------------------------------------------------|
C|-------------------------------------5b--5-3-5\----------------------------|
G|------0h3p0-3---0h3p0-5---0h3p0-5\-----------------------------------------|
C|--3------------------------------------------------------------------------|

D|---------------------------------------------------------------------------|
A|---------------------------------------------------------------------------|
F|---------------------------------------------------------------------------|
C|-------------------------------------5b--5-3-5\----------------------------|
G|------0h3p0-3---0h3p0-5---0h3p0-5\-----------------------------------------|
C|--3------------------------------------------------------------------------|

D|---------------------------------------------------------------------------|
A|---------------------------------------------------------------------------|
F|---------------------------------------------------------------------------|
C|---------------------------------------------------------------------------|
G|------0h3p0-3---0h3p0------------------------------------------------------|
C|--3-------------------5-(let ring)-----------------------------------------|
            
Submit corrections



        Dont Tell  lessons Hard to play? Try these video lessons and learn fast Dont Tell  lessons
        
↑ Back to top | Tablatures and chords for acoustic guitar and electric guitar, ukulele, drums are parodies/interpretations of the original songs. You may use it for private study, scholarship, research or language learning purposes only