» » »

Rolling Stones - Stealing My Heart Tabs

Artists:  A B C D E F G H I J K L M N O P Q R S T U V W X Y Z # 

Stealing My Heart Tabs

(ver. 1) Click to play this song!
Rolling Stones
 Rating:
4/5 (4 votes)


 Stealing My Heart lessons Tabs too difficult? Try these video lessons and learn fast
 
                PROPS GO TO: chris wilson



KEY:S-SLIDE
    P-PULL OFF
                     GUIT. 1
E|---------------------------------------------------------------------    PART 1
B|---------------------------------------------------------------------
G|--7-7-7-x-x----------------------------------------------------------
D|--7-7-7-x-x-9-9-9-x-x-4-4-x-5---5-5----------------------------------
A|--5-5-5-x-x-9-9-9-x-x-4-4-x-5---5-5----------------------------------
E|------------7-7-7-x-x-2-2-x-3---3-3----------------------------------X2

HALF WAY THROUGH GUIT. 1'S SECOND TIME THROUGH THE FIRST PART, GUIT. 2 STARTS IN.
     
                    GUIT.2
E|------------------------------------------------------------
B|------------------------------------------------------------
G|----7P6-----------------7-----------------------------------
D|---------9P7----5--3S4--------------------------------------
A|------------------------------------------------------------
E|------------------------------------------------------------X2
  THE SAME DUET REPEATS, THEN GUIT. 2 STOPS, AND GUIT. 1 PLAYS THIS...

E|----2-2-2-2-2-2-2-2---------------------------------------------- PART 2
B|----3-3-3-3-3-3-3-3---2-2-2-2-2-2-2-2----------------------------
G|----2-2-2-2-2-2-2-2---2-2-2-2-2-2-2-2----------------------------
D|----0-0-0-0-0-0-0-0---2-2-2-2-2-2-2-2----------------------------
A|----------------------0-0-0-0-0-0-0-0----------------------------
E|-----------------------------------------------------------------


E|--------0-2------------------------------------------------------ PART 3
B|------3-----------------2----------------------------------------
G|----2-----------------2------------------------------------------
D|--0-----------------2--------------------------------------------
A|------------------0----------------------------------------------
E|-----------------------------------------------------------------REPEAT

LUCK IS EXPENSIVE,
FREEDOM COMES CHEAP,
WHEN, LOVE IS ON THE MENU,
I DON'T DRINK SO DEEP.

E|----2-2-x-2--x--------------------------------------------------  PART 4
B|----3-3-x-2--x---------3----------------------------------------
G|----2-2-x-2--x---------0----------------------------------------
D|----0-0-x-0--x---1-1-x-0----------------------------------------
A|-----------------2-2-x-2----------------------------------------
E|-----------------2-2-x-3----------------------------------------REPEAT

I WAS JUST OUT THERE TO HAVE ME SOME FUN, 
BUT IT'S EASIER SAID THEN DONE


GUIT. 1
E|---------------------------------------------------------------------
B|---------------------------------------------------------------------
G|--7-7-7-x-x----------------------------------------------------------
D|--7-7-7-x-x-9-9-9-x-x-4-4-x-5---5-5----------------------------------
A|--5-5-5-x-x-9-9-9-x-x-4-4-x-5---5-5----------------------------------
E|------------7-7-7-x-x-2-2-x-3---3-3----------------------------------

GUIT. 2

E|---------------------------------------------------------------------
B|---------------------------------------------------------------------
G|----7p6----------------7---------------------------------------------
D|---------9p7---5--3s4------------------------------------------------
A|---------------------------------------------------------------------
E|---------------------------------------------------------------------
WE'RE STANDING SO FAR APART,
 WE HAD A STREAM OF FALSE STARTS
E|---------------------------------------------------------------------
B|---------------------------------------------------------------------
G|---7-7-7-x-x---------------------------------------------------------
D|---7-7-7-x-x-9-9-9-x-x-4-4-4-----------------------------------------
A|---5-5-5-x-x-9-9-9-x-x-4-4-4-----------------------------------------
E|-------------7-7-7-x-x-2-2-2-----------------------------------------x2

i CAN'T SEEM TO STOP IT

E|---------------------------------------------------------------------
B|---------------------------------------------------------------------
G|---7P6----------------7----------------------------------------------
D|--------9P7---5--3S4-------------------------------------------------
A|---------------------------------------------------------------------
E|---------------------------------------------------------------------

IT GROWS AND IT GROWS AND IT GROWS

REPEAT PART 2, TWICE.
 
STEALING MY HEART
STEALING MY HEART
STEALING MY HEART

REPEAT PART 3, 3 TIMES

PUT MY CLAWS ON THE TABLE
YOU CAN LOOK UP MY SLEEVES
YOU SAY YOU WERE HONEST,
BUT, LOVE IS FOR THEVES.

REPEAT PART 4 TWICE
 
i WAS JUST OUT THERE
CHASED AS A NUN,
IT'S ESIER SAID THAN DONE

REPEAT PART 1, 3 TIMES

so, basically the stuff I have tabbed repeats until the solo.

solo:

E|---------------------------------------------------------------------
B|---------------------------------------------------------------------
G|-----12--11--------12--11--14----------------------------------------
D|-------------12------------------------------------------------------
A|---------------------------------------------------------------------
E|---------------------------------------------------------------------repeat

E|---------------------------------------------------------------------
B|---------------------------------------------------------------------
G|----14-----12-----11-----12------14----12----11----12----------------
D|---------------------------------------------------------------------
A|---------------------------------------------------------------------
E|---------------------------------------------------------------------

that's basically it,  by the way the song can be found on the second cd off of forty licks.
            
Submit corrections



        Stealing My Heart lessons Hard to play? Try these video lessons and learn fast Stealing My Heart lessons
        
↑ Back to top | Tablatures and chords for acoustic guitar and electric guitar, ukulele, drums are parodies/interpretations of the original songs. You may use it for private study, scholarship, research or language learning purposes only