Home » R » Rolling Stones »

Rolling Stones - Money Chords

Artists:  A B C D E F G H I J K L M N O P Q R S T U V W X Y Z # 

Money Chords

(ver. 1) Click to play this song!
Rolling Stones
 Rating:
4.3/5 (12 votes)
                Intro & instrumental 12 bar
/D /% /% /% /% /% /% /% /A /G /D /A /
 
Verse 12bar
 /D /% /% /% /G /% /D /% /A /G /D A D/A /
 
[Intro]
    D
e |-----------------|-----------------|
B |-----------------|-----------------|
G |-2-2-2-2-2/4\2-2-|-2-2-2-2/4---2---|
D |-0-0-3-0-3/5\3-0-|-3-0-3-3/5---3---|X 4
A |-----------------|-----------------|
E |-----------------|-----------------|
    A                 G
e |-----5---5-5-5-5-|-----3---3-3-3-3-|
B |-----5---5-5-5-5-|-----3---3-3-3-3-|
G |-----6---6-6-6-6-|-----4---4-4-4-4-|
D |-----7---7-7-7-7-|-----5---5-5-5-5-|
A |-----------------|-----------------|
E |-5---------------|-3---------------|
 
    D                 A
e |-----------------|-5-5-5-5-5-5-5-5-|
B |-----------------|-5-5-5-5-5-5-5-5-|
G |-2-2-2-2-2/4\2-2-|-6-6-6-6-6-6-6-6-|
D |-0-0-3-0-3/5\3-0-|-7-7-7-7-7-7-7-7-|
A |-----------------|-----------------|
E |-----------------|-----------------|
 
 
[Verse 1]
D                    D
  The best things in life are free
D                        D
 You can give 'em to the birds and bees
       G             G
I want money (that's what I want)
         D          D
(Yeah, what I want, what I want)
              A      G
That's what I wa- -ant, oh yeah
D      A      D    A
That is what I want
 
[Verse 2]
D                     D
 Money don't buy everything it's true
D                  D
 What it don't buy I can't use
       G             G
I want money (that's what I want)
         D            D
Oh, yeah baby (that's what I want)
              A      G
That's what I want, whoa oh (that's what I want)
D      A      D    A
That's what I want Yeah, yeah, yeah
 
[Instrumental]
D         A    G    D   A
 
[Verse 3]
D                 D
Your love give me such a thrill
D                    D
 But your love won't pay my bills
       G             G
I want money (that's what I want)
         D          D
Yeah er hey hey,(.. what I want)
              A       G
That's what I wa- -ant, woah yeah
D       A      D    A                      A
That is what I want. (That is what I want) yeah give me
 
[Verse 4]
D        D
money,   yeah, yeah, yeah
        D             D
Lots of money,(that's yeah yeah yeah)
            G                   G
Well if you want me to love you (.. what I want)
                     D                      D
Give me money If you want me to squeeze you give me money
              A        G
That's what I wa- -ant, Woah yeah, thats what I want
 D       A      D    A
(That is what I want)  Yeah  Yeah, give me
 
[Verse 5]
 D              D
 money, Come on baby,
        D             D
lots of money (thats what I want)
            G                   G
Well if you want me to love you give me money
       D
if you want me to hold
              A    G
That's what I want come on baby, give me what I
D          A      D     D7
Want Thats what I want
            
Submit corrections

↑ Back to top | Tablatures and chords for acoustic guitar and electric guitar, ukulele, drums are parodies/interpretations of the original songs. You may use it for private study, scholarship, research or language learning purposes only