» » »

Rolling Stones - Dead Flowers Tabs

Artists:  A B C D E F G H I J K L M N O P Q R S T U V W X Y Z # 

Dead Flowers Tabs

(ver. 2) Click to play this song!
Rolling Stones
 Rating:
4/5 (4 votes)


 Dead Flowers lessons Tabs too difficult? Try these video lessons and learn fast
 
                E|----------------4--------------------------------------------------------------------|
B|-------------6----6----4------4---------------------9----6-------------------------|
G|---------6-----------------6--------------6----8------------8----6-----6---8--6---|
D|-6---8---------------------------6-----8-----------------------------8-------------|
A|-------------------------------------------------------------------------------------|
E|-------------------------------------------------------------------------------------|


E|---------------------------------------------------------------------|
B|---------------------------------------------------------------------|
G|---------------------------------------------------------------------|
D|---------------------------------------------------------------------|
A|---------------------------------------------------------------------|
E|---------------------------------------------------------------------|
            
Submit corrections



        Dead Flowers lessons Hard to play? Try these video lessons and learn fast Dead Flowers lessons
        
↑ Back to top | Tablatures and chords for acoustic guitar and electric guitar, ukulele, drums are parodies/interpretations of the original songs. You may use it for private study, scholarship, research or language learning purposes only