» » »

Roger Waters - The Ballad Of Jean Charles De Menezes Tabs

Artists:  A B C D E F G H I J K L M N O P Q R S T U V W X Y Z # 

The Ballad Of Jean Charles De Menezes Tabs

(ver. 1) Click to play this song!
Roger Waters
 Rating:
4.3/5 (29 votes)

 The Ballad Of Jean Charles De Menezes lessons Tabs too difficult? Try these video lessons and learn fast
 
                e|-----------13------------|----------8--------------|-------------------------|
B|-13--13h15---13h15---13--|-8--8h10-------8h10----8-|-------------------------|
G|-------------------------|-------------------------|-----------10/9/10-------|
D|-------------------------|-------------------------|-------------------------|
A|-------------------------|-------------------------|-------------------------|
E|-------------------------|-------------------------|-------------------------|

e|-------------------------|-------------------------|-------------------------|
B|-------------------------|-------------------------|-------------------------|
G|-10-9-7------------------|-------------------------|-------------------------|
D|--------10-8----7--------|-------------------------|-------------------------|
A|-------------10-----8----|-------------------------|-------------------------|
E|-------------------------|-------------------------|-------------------------|
            
Submit corrections


        The Ballad Of Jean Charles De Menezes lessons Hard to play? Try these video lessons and learn fast The Ballad Of Jean Charles De Menezes lessons
        
↑ Back to top | Tablatures and chords for acoustic guitar and electric guitar, ukulele, drums are parodies/interpretations of the original songs. You may use it for private study, scholarship, research or language learning purposes only