» » »

Roger Waters - 506 Am Every Strangers Eyes Tabs

Artists:  A B C D E F G H I J K L M N O P Q R S T U V W X Y Z # 

506 Am Every Strangers Eyes Tabs

(ver. 1) Click to play this song!
Roger Waters
 Rating:
4/5 (4 votes)

 506 Am Every Strangers Eyes  lessons Tabs too difficult? Try these video lessons and learn fast
 
                
VOCALS
*******
01:11             b r                h           01:35      b r   b 
e|-12----b-r---|-15---15--------12-12-13-|--b-r-|--b-r---|-15--|-15--15-15-|--b--r---h------|
B|------15--13-|----------13-15----------|-15---|-15--13-|-----|-----------|-15----13-15-13-|
G|-------------|-------------------------|------|--------|-----|-----------|----------------|
D|-------------|-------------------------|------|--------|-----|-----------|----------------|
A|-------------|-------------------------|------|--------|-----|-----------|----------------|
E|-------------|-------------------------|------|--------|-----|-----------|----------------|

01:59
    b                       b                              h  p               
e|-15--15-15---rb--------|-15--15-15--b----------------|-17-20-17----17-----------------------|
B|------------15--13--13-|-----------15-15-13----13-15-|----------20----20--b-20--rb----------|
G|-----------------------|--------------------14-------|-------------------19----19--17----17-|
D|-----------------------|-----------------------------|--------------------------------19----|
A|-----------------------|-----------------------------|--------------------------------------|
E|-----------------------|-----------------------------|--------------------------------------|

02:36
    b                                               h  p          b r     
e|-20-20--b-20--br-|----------------------------|-17-20-17----17-20--|
B|-------20----20--|--------b-20-20-20--b-------|----------20--------|
G|-----------------|----17-19----------19-17----|--------------------|
D|-----------------|-19----------------------19-|--------------------|
A|-----------------|----------------------------|--------------------|
E|-----------------|----------------------------|--------------------|

                                                        b r
e|--b-20--b-------------h--p-------------------------|-19--17-|
B|-20----20-20--18-20-18-20-18-----------------------|--------|
G|-----------------------------21-19-21-19--17----17-|--------|
D|---------------------------------------------19----|--------|
A|---------------------------------------------------|--------|
E|---------------------------------------------------|--------|


--------------
03:20
SOLO
*****
     s       s                      s      s        s             s       s                         s
e|-10\12---10\12-10----|----10-12-12\13--12\13-12-12\10-|-12-13-13\15-|-13\15-15-15----|-------12-12\13-|
B|------------------13-|-13-----------------------------|-------------|-------------13-|-13-15----------|
G|---------------------|--------------------------------|-------------|----------------|----------------|
D|---------------------|--------------------------------|-------------|----------------|----------------|
A|---------------------|--------------------------------|-------------|----------------|----------------|
E|---------------------|--------------------------------|-------------|----------------|----------------|

     s        s  
e|-12\13-12-12\10-|---h---|
B|----------------|-12-13-|
G|----------------|-------|
D|----------------|-------|
A|----------------|-------|
E|----------------|-------|


--------------
VOCALS
*******
04:07
     s      s        s             s      s                               s        s  
e|-12\13--12\13-12-12\10-|-12-13-13\15-|-13\15-15-15----|-------12-13-|-12\13-12-12\10-|-------|
B|-----------------------|-------------|-------------13-|-13-15-------|----------------|-12-13-|
G|-----------------------|-------------|----------------|-------------|----------------|-------|
D|-----------------------|-------------|----------------|-------------|----------------|-------|
A|-----------------------|-------------|----------------|-------------|----------------|-------|
E|-----------------------|-------------|----------------|-------------|----------------|-------|
            
Submit corrections


        506 Am Every Strangers Eyes  lessons Hard to play? Try these video lessons and learn fast 506 Am Every Strangers Eyes  lessons
        
↑ Back to top | Tablatures and chords for acoustic guitar and electric guitar, ukulele, drums are parodies/interpretations of the original songs. You may use it for private study, scholarship, research or language learning purposes only