» » »

Roger Waters - 501 Am The Pros And Cons Of Hitchhiking Part 10 Tabs

Artists:  A B C D E F G H I J K L M N O P Q R S T U V W X Y Z # 

501 Am The Pros And Cons Of Hitchhiking Part 10 Tabs

(ver. 1) Click to play this song!
Roger Waters
 Rating:
2.8/5 (27 votes)

 501 Am The Pros And Cons Of Hitchhiking Part 10  lessons Tabs too difficult? Try these video lessons and learn fast
 
                02:28
e|------------------|---h--p-----------------|-------10--b-|--b-------------------------|-F---|
B|----10---b--10-13-|-10-13-10----10--b------|-10-13----13-|-13-13--b-------------------|-E---|
G|--10----12--------|----------12----12-~~~~-|-------------|-------12-12-10----12-10----|-E-B-|
D|-x----------------|------------------------|-------------|----------------12----------|-D-A-|
A|------------------|------------------------|-------------|-------------------------12-|---C-|
E|------------------|------------------------|-------------|----------------------------|---K-|


e|---------------------------------|----10--b--10-10-|
B|---------------------------------|--b----13--------|
G|---------------------------------|-12--------------|
D|---h---12-h---12-12---p----------|-----------------|
A|-10-12-----12-------12-10-8----s-|-----------------|
E|----------------------------10-\-|-----------------|


e|----------------------------------------------------------------|-----------------|
B|-13-10--b-------------------------------------------------------|-----b-----------|
G|-------12-12-10----12----10------h--p---------------------------|-10-12-12-10---s-|
D|----------------12----12----12-10-12-10---h--p-------s----10----|-------------12\-|
A|----------------------------------------10-12-10-8-10\12-----12-|-----------------|
E|----------------------------------------------------------------|-----------------|

02:45
e|------------------------------|--b------s-|---------b-15--b---rb-----s-|
B|------------------b-15--rb----|-15-15-13\-|-s---13-15----15--15--13--\-|
G|-----------12-14-14----14--12-|-----------|-\14------------------------|
D|-s---12-14--------------------|-----------|----------------------------|
A|-\14--------------------------|-----------|----------------------------|
E|------------------------------|-----------|----------------------------|

                  s                  s                       b  b  brp   s
e|-----14-------14\-|-----14-------14\-|-----15-15-15----15-17-17-17--15-\-|
B|-s------15--------|-s------15--------|-s------------17-------------------|
G|-\14-------14-----|-\14-------14-----|-\16-------------------------------|
D|------------------|------------------|-----------------------------------|
A|------------------|------------------|-----------------------------------|
E|------------------|------------------|-----------------------------------|            
Submit corrections


        501 Am The Pros And Cons Of Hitchhiking Part 10  lessons Hard to play? Try these video lessons and learn fast 501 Am The Pros And Cons Of Hitchhiking Part 10  lessons
        
↑ Back to top | Tablatures and chords for acoustic guitar and electric guitar, ukulele, drums are parodies/interpretations of the original songs. You may use it for private study, scholarship, research or language learning purposes only