» » »

Roger Waters - 433 Am Running Shoes Tabs

Artists:  A B C D E F G H I J K L M N O P Q R S T U V W X Y Z # 

433 Am Running Shoes Tabs

(ver. 1) Click to play this song!
Roger Waters
 Rating:
4.3/5 (27 votes)

 433 Am Running Shoes lessons Tabs too difficult? Try these video lessons and learn fast
 
                e|--0-0-------------------5~~~~~---------------------------------------------|
B|--2s5----5---8~~~~~-----------------6--5------6--5-------------------------|
G|--2s5----------------------------5---------5---------5s2--2s5~~~~----------|
D|---------------------------------------------------------------------------|
A|---------------------------------------------------------------------------|
E|---------------------------------------------------------------------------|

e|---------8~~~~~-------5~~~~~-----------------------------------------------|
B|---5--8------------------------------------6~~~-------------6~~~~~---------|
G|--------------------------------------5-----------------5------------------|
D|----------------------------------7-----------------7----------------------|
A|---------------------------------------------------------------------------|
E|---------------------------------------------------------------------------|


e|----------------------------------------------------------------------------|
B|--5--8~~~----5--8~~~~---------------6~~~~-----6-----5--8~~~~----------------|
G|-------------------------------5--------------5-----------------------------|
D|---------------------------7------------------7-----------------------------|
A|----------------------------------------------------------------------------|
E|----------------------------------------------------------------------------|            
Submit corrections


        433 Am Running Shoes lessons Hard to play? Try these video lessons and learn fast 433 Am Running Shoes lessons
        
↑ Back to top | Tablatures and chords for acoustic guitar and electric guitar, ukulele, drums are parodies/interpretations of the original songs. You may use it for private study, scholarship, research or language learning purposes only