Home » R » Roger Miller »

Roger Miller - King Of The Road3 Bass

Artists:  A B C D E F G H I J K L M N O P Q R S T U V W X Y Z # 

King Of The Road3 Bass

(ver. 1) Click to play this song!
Roger Miller
-------------------------------------------------------------------------------
			     King Of The Road- Roger Miller
-------------------------------------------------------------------------------


Tuning: Standard

Intro
G|------------------------------------------------------------------------------------|
D|-----------------------------8-8----------------------------------------------------|
A|--8-6-----------5----5-6--6------6-6--8--6-8--6-8--8-6-5----------------------------|
E|--------8-6---6-------------------------------------------------8-------------------|

Verse
G|----------------------------------------------------------------------|
D|----------------------------------------------------------------------|
A|----------6(x8)-8(x8)-------------------6(x8)-8-----8-6-5-------------|
E|---6(x8)----------------6(x8)----6(x8)----------------------8---------|

*****KEY CHANGE******

Verse
G|---------------------------------------------------------------------|
D|---------------------------------------------------------------------|
A|----------7(x8)-9(x8)------------------7(x8)-9---9-7-6---------------|
E|---7(x8)----------------7(x8)--7(x8)---------------------9-----------|


| /  slide up
| \  slide down
| h  hammer-on
| p  pull-off
| ~  vibrato
| +  harmonic
| x  Mute note
===============================================================================
            
Submit corrections

↑ Back to top | Tablatures and chords for acoustic guitar and electric guitar, ukulele, drums are parodies/interpretations of the original songs. You may use it for private study, scholarship, research or language learning purposes only