Home » R » Rod Stewart »

Rod Stewart - You're In My Heart Tabs

Artists:  A B C D E F G H I J K L M N O P Q R S T U V W X Y Z # 

You're In My Heart Tabs

(ver. 1) Click to play this song!
Rod Stewart
You're in My Heart
                          (Chords)
 
INTRO:
 
    Emaj7             C9                F#m7          B9 +  +  D9
|-----------------|-------------------|------------|--2--3--4--5------
|---4--4---4--4---|------3--3--4--3---|--2---2-2---|--2--3--4--5------
|---4--4---4--4---|------3--3--3--3---|--2---2-2---|--2--3--4--5------
|---2------2------|------2------------|--2---2-2---|------------------
|-----------------|-------------------|------------|--2--3--4--5------
|---4------4------|---3---------------|--2---2-2---|------------------
 
 
VERSE:                                     (or do this for the last bar:)   
   E         D#m7      C#m7     Bmaj7          Bmaj7
|---------|---------|--------|--------||     |-----0--1--2--|
|--9------|--7------|--5-----|--4-----||     |--4-----------|
|--9------|--6------|--4-----|--3-----||     |--------------|
|--9------|--8------|--6-----|--4-----||     |--------0--1--|
|--7------|--6------|--4-----|--2-----||     |--2--4--------|
|---------|---------|--------|--------||     |--------------|
 
Last line of verse:  (before chorus)
   E         D#m7      C#m7     E    A
|---------|---------|---------|--0----0---||
|--9------|--7------|--5------|--0----2---||
|--9------|--6------|--4------|--1----2---||
|--9------|--8------|--6------|--2----2---||
|--7------|--6------|--4------|--2----0---||
|---------|---------|---------|--0--------||
 
 
CHORUS:
   D            A            D               A
|--2-----2---|--0-----0---|--2-----2---|-----0--------||
|--3-----3---|--2-----2---|--3-----3---|-----2--------||
|--2-----2---|--2-----2---|--2-----2---|-----2--------||
|--0---------|--2-----2---|--0---------|-----2--------||
|--------0---|--0---------|--------0---|-----0--2--4--||
|------------|--------0---|------------|--------------||
 
   D            A     D  C#m   Bm           A     Bdim
|--2-----2---|--0-----2-----|--------2---|--0-----------||
|--3-----3---|--2-----3--5--|--3-----3---|--2-----7-----||
|--2-----2---|--2-----2--6--|--4-----4---|--2-----8-----||
|--0---------|--2-----0--6--|--4-----4---|--2-----7-----||
|--------0---|--0--------4--|--2---------|--0-----------||
|------------|--------------|------------|--------8-----||
            
Submit corrections

↑ Back to top | Tablatures and chords for acoustic guitar and electric guitar, ukulele, drums are parodies/interpretations of the original songs. You may use it for private study, scholarship, research or language learning purposes only