Home » R » Rob Zombie »

Rob Zombie - Iron Head Tabs

Artists:  A B C D E F G H I J K L M N O P Q R S T U V W X Y Z # 

Iron Head Tabs

(ver. 1) Click to play this song!
Rob Zombie


This is (FOR ME) the best song besides Feel so numb from The Sinister Urge.
This shows the coolest thing that Rob and Ozzy can do together, it`s
a GREAT ######` SONG that Zombie ever made (well, not the only one)
And shows the great power of Rob Zombie and Ozzy.

It`s a shame that no one had tabbed this song.

Enjoy!

----------------------------------------------------------------------------
DROPPED D TUNING

Key notation:

.: Palm mute
h: Hammer on
^: Bend
X: Muted strings
----------------------------------------------------------------------------

Intro:
|------|-------------------------------------------------|
|------|-------------------------------------------------|
|------|-------------------------------------------------|
|------|-------------------------------------------------|
|-0h1--|-0-0--0-2--0-0--0-2-0-0--0-0-0--0-2-0-0-0--2-0h1-|
|-0h1--|-0-0--0-2--0-0--0-2-0-0--0-0-0--0-2-0-0-0--2-0h1-|
|-0h1--|-0-0--0-2--0-0--0-2-0-0--0-0-0--0-2-0-0-0--2-0h1-|
         . .  .    . .  .   . .  . . .  .   . . .


|-------------------------------------------------|
|-------------------------------------------------|
|-------------------------------------------------|
|-------------------------------------------------|
|-0-0--0-2--0-0--0-2-0-0--0-0-0--0-4-0-0-0--5-2h3-|
|-0-0--0-2--0-0--0-2-0-0--0-0-0--0-4-0-0-0--5-2h3-|
|-0-0--0-2--0-0--0-2-0-0--0-0-0--0-4-0-0-0--5-2h3-|
  . .  .    . .  .   . .  . . .  .   . . .


|-------------------------------------------------|
|-------------------------------------------------|
|-------------------------------------------------|
|-------------------------------------------------|
|-0-0--0-2--0-0--0-2-0-0--0-0-0--0-2-0-0-0--2-0h1-|
|-0-0--0-2--0-0--0-2-0-0--0-0-0--0-2-0-0-0--2-0h1-|
|-0-0--0-2--0-0--0-2-0-0--0-0-0--0-2-0-0-0--2-0h1-|
  . .  .    . .  .   . .  . . .  .   . . .


|------------------------------------|
|------------------------------------|
|------------------------------------|
|------------------------------------|
|-0-0--0-2--0-0--0-2-0-0-x-----------|
|-0-0--0-2--0-0--0-2-0-0-x-scratches-|
|-0-0--0-2--0-0--0-2-0-0-x-----------|

Verse (just bass and drums):

what is the purpose
demonoid phenomenon
regulate the flux and reflux
so bring it on
loose upon the world
destruct a juggernaut


prechorus:

suddenly...  (x 2)                     another guitar does the fills:
|----------------------------------|   -----------------
|----------------------------------|   -4h6h4-----------
|----------------------------------|   -----------------
|----------------------------------|   -----------------
|----------------------------------|   -----------------
|-0h2-2-2-2-2--2(0)-3-4-4-3-2-0----|   -----------------
		

	    
|----------------------------------|   -----------------
|----------------------------------|   -9h10-11---------
|----------------------------------|   -----------------
|----------------------------------|   -----------------
|----------------------------------|   -----------------
|-0h2-2-2-2-2--2(0)-3-4-4-3-2-0----|   -----------------


Chorus (x 2):
|-------------------------------------------------|
|-------------------------------------------------|
|-------------------------------------------------|
|-------------------------------------------------|
|-0-0--0-2--0-0--0-2-0-0--0-0-0--0-2-0-0-0--2-0h1-|
|-0-0--0-2--0-0--0-2-0-0--0-0-0--0-2-0-0-0--2-0h1-|
|-0-0--0-2--0-0--0-2-0-0--0-0-0--0-2-0-0-0--2-0h1-|
  . .  .    . .  .   . .  . . .  .   . . .

|-------------------------------------------------|
|-------------------------------------------------|
|-------------------------------------------------|
|-------------------------------------------------|
|-0-0--0-2--0-0--0-2-0-0--0-0-0--0-4-0-0-0--5-2h3-|
|-0-0--0-2--0-0--0-2-0-0--0-0-0--0-4-0-0-0--5-2h3-|
|-0-0--0-2--0-0--0-2-0-0--0-0-0--0-4-0-0-0--5-2h3-|
  . .  .    . .  .   . .  . . .  .   . . .

next part:

|-------------------------------------------------|
|-------------------------------------------------|
|-------------------------------------------------|
|-------------------------------------------------|
|-0-0--0-2--0-0--0-2-0-0--0-0-0--0-2-0-0-0--2-0h1-|
|-0-0--0-2--0-0--0-2-0-0--0-0-0--0-2-0-0-0--2-0h1-|
|-0-0--0-2--0-0--0-2-0-0--0-0-0--0-2-0-0-0--2-0h1-|
  . .  .    . .  .   . .  . . .  .   . . .


|------------------------------------|
|------------------------------------|
|------------------------------------|
|------------------------------------|
|-0-0--0-2--0-0--0-2-0-0-x-----------|
|-0-0--0-2--0-0--0-2-0-0-x-scratches-|
|-0-0--0-2--0-0--0-2-0-0-x-----------|

Verse:

what is my name
demonoid phenomenon
laugh in your face and
break because you dont belong
vent apon the brink
appear another demi-god

prechorus:

suddenly...  (x 2)                     another guitar does the fills:
|----------------------------------|   -----------------
|----------------------------------|   -4h6h4-----------
|----------------------------------|   -----------------
|----------------------------------|   -----------------
|----------------------------------|   -----------------
|-0h2-2-2-2-2--2(0)-3-4-4-3-2-0----|   -----------------
		

	    
|----------------------------------|   -----------------
|----------------------------------|   -9h10-11---------
|----------------------------------|   -----------------
|----------------------------------|   -----------------
|----------------------------------|   -----------------
|-0h2-2-2-2-2--2(0)-3-4-4-3-2-0----|   -----------------


Chorus(x 2):

Iron head...
|-------------------------------------------------|
|-------------------------------------------------|
|-------------------------------------------------|
|-------------------------------------------------|
|-0-0--0-2--0-0--0-2-0-0--0-0-0--0-2-0-0-0--2-0h1-|
|-0-0--0-2--0-0--0-2-0-0--0-0-0--0-2-0-0-0--2-0h1-|
|-0-0--0-2--0-0--0-2-0-0--0-0-0--0-2-0-0-0--2-0h1-|
  . .  .    . .  .   . .  . . .  .   . . .
 
           		 cru-ci-fy you
|-----------------------------------------|
|-----------------------------------------|
|-----------------------------------------|
|-----------------------------------------|
|-0-0--0-2--0-0--0-2-0-0------------------|
|-0-0--0-2--0-0--0-2-0-0------------------|
|-0-0--0-2--0-0--0-2-0-0--2^-5^-4^-3^-----|


Bridge (sinthetizer)


|------------------------------------------|
|------------------------------------------|
|------------------------------------------|
|-2~~~--2~~~--2~~~--2~---------------------|
|-2~~~--2~~~--2~~~--2~---------------------|
|-0~~~--0~~~--0~~~--0~--5~-4~--------------|

|------------------------------|
|------------------------------|
|------------------------------|
|-2~~~--2~~~--2~~~--2~-X-------|
|-2~~~--2~~~--2~~~--2~-X-------|
|-0~~~--0~~~--0~~~--0~-X-------|



prechorus:
suddenly...  (x 2)                     another guitar does the fills:
|----------------------------------|   -----------------
|----------------------------------|   -4h6h4-----------
|----------------------------------|   -----------------
|----------------------------------|   -----------------
|----------------------------------|   -----------------
|-0h2-2-2-2-2--2(0)-3-4-4-3-2-0----|   -----------------
		

	    
|----------------------------------|   -----------------
|----------------------------------|   -9h10-11---------
|----------------------------------|   -----------------
|----------------------------------|   -----------------
|----------------------------------|   -----------------
|-0h2-2-2-2-2--2(0)-3-4-4-3-2-0----|   -----------------


Chorus (x 2):

Iron head...
|-------------------------------------------------|
|-------------------------------------------------|
|-------------------------------------------------|
|-------------------------------------------------|
|-0-0--0-2--0-0--0-2-0-0--0-0-0--0-2-0-0-0--2-0h1-|
|-0-0--0-2--0-0--0-2-0-0--0-0-0--0-2-0-0-0--2-0h1-|
|-0-0--0-2--0-0--0-2-0-0--0-0-0--0-2-0-0-0--2-0h1-|
  . .  .    . .  .   . .  . . .  .   . . .
 
           		 cru-ci-fy you
|-----------------------------------------|
|-----------------------------------------|
|-----------------------------------------|
|-----------------------------------------|
|-0-0--0-2--0-0--0-2-0-0------------------|
|-0-0--0-2--0-0--0-2-0-0------------------|
|-0-0--0-2--0-0--0-2-0-0--2^-5^-4^-3^-----|


End with the bridge:

|------------------------------------------|
|------------------------------------------|
|------------------------------------------|
|-2~~~--2~~~--2~~~--2~---------------------|
|-2~~~--2~~~--2~~~--2~---------------------|
|-0~~~--0~~~--0~~~--0~--5~-4~--------------|


|------------------------------------------|
|------------------------------------------|
|------------------------------------------|
|-2~~~--2~~~--2~~~--2~---------------------|
|-2~~~--2~~~--2~~~--2~---------------------|
|-0~~~--0~~~--0~~~--0~--5~-4~--------------|

_______________________________________________________________________

I hope you like this tab, No one had tabbed it.
Please don`t forget to rate it!!!

R0D Z0MBIE
            
Submit corrections

↑ Back to top | Tablatures and chords for acoustic guitar and electric guitar, ukulele, drums are parodies/interpretations of the original songs. You may use it for private study, scholarship, research or language learning purposes only