» » »

Rob Zombie - Feed The Gods Tabs

Artists:  A B C D E F G H I J K L M N O P Q R S T U V W X Y Z # 

Feed The Gods Tabs

(ver. 1) Click to play this song!
Rob Zombie
 Rating:
4/5 (6 votes)

 Feed The Gods lessons Tabs too difficult? Try these video lessons and learn fast
 
                Tuning: Drop D down 1 1/2 step
        B F# B E G# C#
        B Gb B E Ab Db

Intro:
-------------------------------------------------------------------------|
-------------------------------------------------------------------------|
-------------------------------------------------------------------------|
--2-3--2-3-2-5------------4-5-6-7-8--------------------------------------|
--2-3--2-3-2-5---x-8------4-5-6-7-8---x-4--------------------------------|
--2-3--2-3-2-5------------4-5-6-7-8--------------------------------------|
                         Fast Picking

Verse:
--------------------------------------------------------------------------|
--------------------------------------------------------------------------|
--------------------------------------------------------------------------|
--2-3--2-3-2-5-------2-3--2-3-2-5---2-2-2-2-2-2-2-------------------------|
--2-3--2-3-2-5--x-4--2-3--2-3-2-5---2-2-2-2-2-2-2--x-2--------------------|
--2-3--2-3-2-5-------2-3--2-3-2-5---2-2-2-2-2-2-2-------------------------|
                                    PM------------------------------------|

-------------------------------------------|
-------------------------------------------|
-------------------------------------------|
--3-2-1---2-2-2-2-2-2-2---------4-5-6-7-8--|
--3-2-1---2-2-2-2-2-2-2--x-2----4-5-6-7-8--|
--3-2-1---2-2-2-2-2-2-2---------4-5-6-7-8--|
          PM-------------------------------|        Fast Picking

------------------------|
------------------------|
------------------------|
--2------------------3--|
--2------------------3--|
--2-2-2-2-2-2-2-2-2--3--|
    PM------------------| Don't quite remember how many times you palm mute but
it is easy to pick up.


Interlude: Guitar 1
-----------------------|
-----------------------|
-----------------------|
-----------------------|
-----------------------|
--2-2-2-2--2-2-2--2-2--|
  PM-----  -----  -----| Don't quite remember formation but you will get it

Interlude: Guitar 2
-------------------------------------------------------------------------|
-------------------------------------------------------------------------|
-------------------------------------------------------------------------|
-------------------------------------------------------------------------|
--2-/-/-/--5-/-/-/--2-/-/-/--1-------------------------------------------|
-------------------------------------------------------------------------|
 Use a wah and through in some bends,pings & scr*pes and you will have it,
maybe a slide also.


Well that is pretty much it. He goes back and uses the same parts again
after interlude so just make sure you listen to see which part to use. I
know this tab is not 100% correct but it is pretty close. I have not seen
any tabs of this song on the web so I gave it my best shot to give people
a start. The intro is kinda hard to hear exactly what he is doing but I
            
Submit corrections


        Feed The Gods lessons Hard to play? Try these video lessons and learn fast Feed The Gods lessons
        
↑ Back to top | Tablatures and chords for acoustic guitar and electric guitar, ukulele, drums are parodies/interpretations of the original songs. You may use it for private study, scholarship, research or language learning purposes only