» » »

Rob Zombie - Devil Man Tabs

Artists:  A B C D E F G H I J K L M N O P Q R S T U V W X Y Z # 

Devil Man Tabs

(ver. 1) Click to play this song!
Rob Zombie
 Rating:
4/5 (5 votes)

 Devil Man lessons Tabs too difficult? Try these video lessons and learn fast
 
                Band:  rob zombie
Album:

Copyright (c)  (RECORD LABEL) (YEAR)
Version 1.0 - (DATE)



.  - palm mute           /  - slide up to
\  - slide down to       ~  - vibrato
h  - hammer on           b  - Bend
p  - pull off            Suffixes for bend
t  - tap                 f  - full bend    h - half bend
ph - pinched harmonic    q  - quarter bend t - tap bend
*  - see comment         ^  - Hold bend    r release bend
x  - Stuccatto           ~  - vibrato bend
,  - slight palm mute    () - ghost note, sustained note
"  - tremolo note        <> - Trill

Tuning E A D G B E
rift A
|---------------------------------------------------------------------|
|---------------------------------------------------------------------|
|4-4-4-4-4-4-4-4-4-4-4-4-4-4-4-4-4-4-4-4-4-4-4-4-4-4-4-4-4-4-4-4------|
|4-4-4-4-4-4-4-4-4-4-4-4-4-4-4-4-4-4-4-4-4-4-4-4-4-4-4-4-4-4-4-4------|
|2-2-2-2-2-2-2-2-2-2-2-2-2-2-2-2-2-2-2-2-2-2-2-2-2-2-2-2-2-2-2-2------|
|---------------------------------------------------------------------|
rift B
|---------------------------------------------------------------------|
|---------------------------------------------------------------------|
|---------------------------------------------------------------------|
|2--4--4-----2--4--4--------------------------------------------------|
|2--4--4-----2--4--4--------- 0---------------------------------------|
|2--4--4-----2--4--4------2-4-4-2-------------------------------------|
rift C
|---------------------------------------------------------------------|
|---------------------------------3--3--------------------------------|
|---------------------------------5b-5b-------------------------------|
|3--0-0--5--0-0--6--0-0--5--0-0---------------------------------------|
|3--0-0--5--0-0--6--0-0--5--0-0---------------------------------------|
|3--0-0--5--0-0--6--0-0--5--0-0---------------------------------------|
rift C1
|---------------------------------------------------------------------|
|---------------------------------------------------------------------|
|---------------------------------------------------------------------|
|3--0-0--5--0-0--6--0-0--5--0-0--3--0-0-0-----------------------------|
|3--0-0--5--0-0--6--0-0--5--0-0--3--0-0-0-----------------------------|
|3--0-0--5--0-0--6--0-0--5--0-0--3--0-0-0-----------------------------|
            
Submit corrections


        Devil Man lessons Hard to play? Try these video lessons and learn fast Devil Man lessons
        
↑ Back to top | Tablatures and chords for acoustic guitar and electric guitar, ukulele, drums are parodies/interpretations of the original songs. You may use it for private study, scholarship, research or language learning purposes only