» » »

Rob Zombie - Ballad Of Ressurection Joe Tabs

Artists:  A B C D E F G H I J K L M N O P Q R S T U V W X Y Z # 

Ballad Of Ressurection Joe Tabs

(ver. 1) Click to play this song!
Rob Zombie
 Rating:
4/5 (4 votes)

 Ballad Of Ressurection Joe lessons Tabs too difficult? Try these video lessons and learn fast
 
                BPM=100 

Second part of intro: 
D|----------- 
A|----------- 
F|--10-/9-6~- 
C|--10-/9-6~- 
G|--8-/-7-4~- 
C|----------- 

Verse: 
plays occasionally 
D|-------------- 
A|-------------- 
F|-------------- 
C|--6/8-8-8-8-8- 
G|--6/8-8-8-8-8- 
C|--6/8-8-8-8-8- 

Chorus: 
repeat 1st part 2x, repeat all 1x 
D|-----------------------|---------------------- 
A|-----------------------|---------------------- 
F|-----------------------|--------2/6-------2/8- 
C|--1/3-3-3--3-3-3/4-4/1-|--1-1-1-----1-1-1----- 
G|--1/3-3-3--3-3-3/4-4/1-|--1-1-1-----1-1-1----- 
C|--1/3-3-3--3-3-3/4-4/1-|--1-1-1-----1-1-1----- 
p.m.-- -----

BPM=100 

Second part of intro: 
D|----------- 
A|----------- 
F|--10-/9-6~- 
C|--10-/9-6~- 
G|--8-/-7-4~- 
C|----------- 

Verse: 
plays occasionally 
D|-------------- 
A|-------------- 
F|-------------- 
C|--6/8-8-8-8-8- 
G|--6/8-8-8-8-8- 
C|--6/8-8-8-8-8- 

Chorus: 
repeat 1st part 2x, repeat all 1x 
D|-----------------------|---------------------- 
A|-----------------------|---------------------- 
F|-----------------------|--------2/6-------2/8- 
C|--1/3-3-3--3-3-3/4-4/1-|--1-1-1-----1-1-1----- 
G|--1/3-3-3--3-3-3/4-4/1-|--1-1-1-----1-1-1----- 
C|--1/3-3-3--3-3-3/4-4/1-|--1-1-1-----1-1-1----- 
p.m.-- -----
            
Submit corrections


        Ballad Of Ressurection Joe lessons Hard to play? Try these video lessons and learn fast Ballad Of Ressurection Joe lessons
        
↑ Back to top | Tablatures and chords for acoustic guitar and electric guitar, ukulele, drums are parodies/interpretations of the original songs. You may use it for private study, scholarship, research or language learning purposes only