Home » R » Robert Palmer »

Robert Palmer - Jealous Bass

Artists:  A B C D E F G H I J K L M N O P Q R S T U V W X Y Z # 

Jealous Bass

(ver. 1) Click to play this song!
Robert Palmer
[Intro]
   s s s s s s s s s s s s s s s s    s s s s s s s s s s s s s s s s
G|---------------------------------||---------------------------------||
D|---------------------------------||o-------------------------------o|| x4
A|-----------------------------0-0-||o2---2-2-2-2-2-2-2-2-2-2-2-2-0-0o||
E|---------------------------------||---------------------------------||
 
[Chorus]
G||---------------------------------||    ||---------------------------------||
D||o-------------------------------o|| x4 ||o-------------------------------o|| x2
A||o4-----------2---2-2-2-2-2-2-2-2o||    ||o-------------------------------o||
E||---------------------------------||    ||-4-4-4-4---2-4---4-4-4-4-4-4-4-4-||
   Jealous
G||---------------------------------||
D||o-------------------------------o|| x2
A||o4-----------2---2-2-2-2-2-2-2-2o||
E||---------------------------------||    
   Jealous
G|---------------------------------|---------------------------------|
D|---------------------------------|-----------------------------2-2-|
A|---------------------------------|---------------------------------|
E|-4-4-4-4---2-4---4-4-4-4-4-4-4-4-|-4-4-4-4---2-4---4-4-4-4-4-4-----|                
                                                                When I
[Verse 1]
G|---------------------------------|---------------------------------|
D|-2---0---0-------------------2-2-|-2---0---0-------------------2-2-|
A|-----------4---4---2-------------|-----------4---4---2-------------|
E|---------------------------------|---------------------------------|
  see you with that guy      And he catches your pretty eye    You know it
G|---------------------------------|---------------------------------|
D|-2---0---0-------------------2-2-|-2---0---0-----------------2-2-2-|
A|-----------4---4---2-------------|-----------4---4---2-------------|
E|---------------------------------|---------------------------------|
  makes we want to die       And I'm left out to dry       You know it
G|---------------------------------|
D|-4-------------------------------|
A|-----4---4---2---4-4-2-4---------|
E|---------------------------------|
  makes me want to feel
 
[Chorus]
G||---------------------------------||
D||o-------------------------------o|| x2
A||o4-----------2---2-2-2-2-2-2-2-2o||
E||---------------------------------||    
   Jealous
G|---------------------------------|---------------------------------|
D|---------------------------------|---------------------------------|
A|---------------------------------|---------------------------------|
E|-4-4-4-4---2-4---4-4-4-4-4-4-4-4-|-4-4-4-4---2-4---4-4-4-4-4-4-----|
 
G||---------------------------------||
D||o-------------------------------o|| x2
A||o4-----------2---2-2-2-2-2-2-2-2o||
E||---------------------------------||    
   Jealous
G|---------------------------------|---------------------------------|
D|---------------------------------|-----------------------------2-2-|
A|---------------------------------|---------------------------------|
E|-4-4-4-4---2-4---4-4-4-4-4-4-4-4-|-4-4-4-4---2-4---4-4-4-4-4-4-----|
 
[Verse 2]
G|---------------------------------|---------------------------------|
D|-2---0---0-------------------2-2-|-2---0---0-------------------2-2-|
A|-----------4---4---2-------------|-----------4---4---2-------------|
E|---------------------------------|---------------------------------|
  Don't you know that it makes me green      When I think about you and him
G|---------------------------------|---------------------------------|
D|-2---0---0-------------------2-2-|-2---0---0-----------------2-2-2-|
A|-----------4---4---2-------------|-----------4---4---2-------------|
E|---------------------------------|---------------------------------|                                 
I'm just an end to all your means        And I'm torn apart at the seams
G|---------------------------------|
D|-4-------------------------------|
A|-----4---4---2---4-4-2-4---------|
E|---------------------------------|
You know it makes me want to feel
 
[Chorus]
G||---------------------------------||
D||o-------------------------------o|| x2
A||o4-----------2---2-2-2-2-2-2-2-2o||
E||---------------------------------||       
   Jealous
G|---------------------------------|---------------------------------|
D|---------------------------------|---------------------------------|
A|---------------------------------|---------------------------------|
E|-4-4-4-4---2-4---4-4-4-4-4-4-4-4-|-4-4-4-4---2-4---4-4-4-4-4-4-----|
 
G||---------------------------------||
D||o-------------------------------o|| x2
A||o4-----------2---2-2-2-2-2-2-2-2o||
E||---------------------------------||                  
   Jealous
G|---------------------------------|---------------------------------|
D|---------------------------------|-----------------------------2-2-|
A|---------------------------------|---------------------------------|
E|-4-4-4-4---2-4---4-4-4-4-4-4-4-4-|-4-4-4-4---2-4---4-4-4-4-4-4-----|
 
[Verse 3]
G|---------------------------------|---------------------------------|
D|-2---0---0-------------------2-2-|-2---0---0-------------------2-2-|
A|-----------4---4---2-------------|-----------4---4---2-------------|
E|---------------------------------|---------------------------------|
When I see you with that guy       And he catches your pretty eye
G|---------------------------------|---------------------------------|
D|-2---0---0-------------------2-2-|-2---0---0-----------------2-2-2-|
A|-----------4---4---2-------------|-----------4---4---2-------------|
E|---------------------------------|---------------------------------|                                 
You know it makes we want to die  Oh, and I'm left out to dry
G|---------------------------------|
D|-4-------------------------------|
A|-----4---4---2---4-4-2-4---------|
E|---------------------------------|
You know it makes me want to feel
G|---------------------------------|
D|---------------------------------|
A|-----4-4-4-4-4-4-4-4-2-4---------|
E|---------------------------------|
You know it makes me want to feel 
 
[Chorus]
G||---------------------------------||
D||o-------------------------------o|| x2
A||o4-----------2---2-2-2-2-2-2-2-2o||
E||---------------------------------||      
   Jealous
G|---------------------------------|---------------------------------|
D|---------------------------------|---------------------------------|
A|---------------------------------|---------------------------------|
E|-4-4-4-4---2-4---4-4-4-4-4-4-4-4-|-4-4-4-4---2-4---4-4-4-4-4-4-----|
 
G||---------------------------------||
D||o-------------------------------o|| x2
A||o4-----------2---2-2-2-2-2-2-2-2o||
E||---------------------------------||       
   Jealous
G|---------------------------------|---------------------------------|
D|---------------------------------|---------------------------------|
A|---------------------------------|---------------------------------|
E|-4-4-4-4---2-4---4-4-4-4-4-4-4-4-|-4-4-4-4---2-4---4-4-4-4-4-4-----|
 
G||---------------------------------||
D||o-------------------------------o|| x4 and fade
A||o4-----------2---2-2-2-2-2-2-2-2o||
E||---------------------------------||
   Jealous 
            
Submit corrections

↑ Back to top | Tablatures and chords for acoustic guitar and electric guitar, ukulele, drums are parodies/interpretations of the original songs. You may use it for private study, scholarship, research or language learning purposes only