Home » R » Robert Palmer »

Robert Palmer - Addicted To Love Bass

Artists:  A B C D E F G H I J K L M N O P Q R S T U V W X Y Z # 

Addicted To Love Bass

(ver. 1) Click to play this song!
Robert Palmer
Intro: (Play x2)  Drums / keyboard guitar / Bass (00:18)
  A                 A                G                G
G|----------------|----------------|----------------|----------------|
D|----------------|----------------|----------------|----------------|
A|---5---3r-------|---5---3r-------|---3---1r-------|---3---1r-------|
E|-5---5----5-3-5-|-5---5----5-3-5-|-3---3----3-1-3-|-3---3----3-1-3-|
  D                 D                A                A
G|----------------|----------------|----------------|----------------|
D|----------------|----------------|----------------|----------------|
A|---5---3r---3-5-|---5---3r---3-5-|---5---3r---3-5-|---5---3r---3-5-|
E|-5---5----5-----|-5---5----5-----|-5---5----5-----|-5---5----5-----|

Verse 1: 00:52
G|----------------|----------------|----------------|----------------|
D|----------------|----------------|----------------|----------------|
A|---5---3r-------|---5---3r-------|---3---1r-------|---3---1r-------|
E|-5---5----5-3-5-|-5---5----5-3-5-|-3---3----3-1-3-|-3---3----3-1-3-|
 A      
The lights are on, but you're not home
 G      
Your mind is not your own
G|----------------|----------------|----------------|----------------|
D|----------------|----------------|----------------|----------------|
A|---5---3r---3-5-|---5---3r---3-5-|---5---3r---3-5-|---5---3r---3-5>|
E|-5---5----5-----|-5---5----5-----|-5---5----5-----|-5---5----5-----|
 D     
Your heart sweats, your body shakes
 A      
Another kiss is what it takes

G|----------------|----------------|----------------|----------------|
D|----------------|----------------|----------------|----------------|
A|---5---3r---3-5-|---5---3r---3-5-|---3---1r-------|---3---1r-------|
E|-5---5----5-----|-5---5----5-----|-3---3----3-1-3-|-3---3----3-1-3-|
 A      
You can't sleep, you can't eat
 G      
There's no doubt - you're in deep
G|----------------|----------------|----------------|----------------|
D|----------------|----------------|----------------|----------------|
A|---5---3r---3-5-|---5---3r---3-5-|---5---3r---3-5-|---5---3r-------|
E|-5---5----5-----|-5---5----5-----|-5---5----5-----|-5---5----5-3-2-|
 D
Your throat is tight, you can't breathe
 A      
Another kiss is all you need


Chorus: 01:27
G|-----------|----------|----------------|----------------|-
D|-----------|----------|----------------|----------------|-
A|-----------|-5r--5-5--|---5---3r---3-5-|---5---3r-------|-
E|-(2)--2-2--|----------|-5---5----5-----|-5---5----5-3-2-|-
 F#m     D     
Wow, You like to think that you're immune to the stuff, 
 A      
oh yeah
G|-----------|----------|----------|--9-7-5---------------|-
D|-----------|----------|----------|--------7-5-----------|-
A|-----------|-5r--5-5--|-5r--5-5--|------------7-5-------|-
E|-(2)--2-2--|----------|----------|----------------7-5r--|-
 F#m     D     
It's closer to the truth to say you can't get enough
 D      
You're gonna have to face it you're addicted to love

Verse 2: 01:44
G|----------------|----------------|----------------|----------------|
D|----------------|----------------|----------------|----------------|
A|---5---3r-------|---5---3r-------|---3---1r-------|---3---1r-------|
E|-5---5----5-3-5-|-5---5----5-3-5-|-3---3----3-1-3-|-3---3----3-1-3-|
 A      
You see the signs, but you can't read
 G      
You're running at a different speed
G|----------------|----------------|----------------|----------------|
D|----------------|----------------|----------------|----------------|
A|---5---3r---3-5-|---5---3r---3-5-|---5---3r---3-5-|---5---3r---3-5-|
E|-5---5----5-----|-5---5----5-----|-5---5----5-----|-5---5----5-----|
 D     
Your heart beats in double time
 A      
Another kiss and you'll be mine, 

G|----------------|----------------|----------------|----------------|
D|----------------|----------------|----------------|----------------|
A|---5---3r---3-5-|---5---3r---3-5-|---3---1r-------|---3---1r-------|
E|-5---5----5-----|-5---5----5-----|-3---3----3-1-3-|-3---3----3-1-3-|
 A      
A one track mind
 G      
You can't be saved
G|----------------|----------------|----------------|----------------|
D|----------------|----------------|----------------|----------------|
A|---5---3r---3-5-|---5---3r---3-5-|---5---3r---3-5-|---5---3r-------|
E|-5---5----5-----|-5---5----5-----|-5---5----5-----|-5---5----5-3-2-|
 D
Oblivion is all you crave
 A      
If there's some left for you You don't mind if you do


Chorus: 02:17
G|-----------|----------|----------------|----------------|-
D|-----------|----------|----------------|----------------|-
A|-----------|-5r--5-5--|---5---3r---3-5-|---5---3r-------|-
E|-(2)--2-2--|----------|-5---5----5-----|-5---5----5-3-2-|-
 F#m     D     
Wow, You like to think that you're immune to the stuff, 
 A      
oh yeah
G|-----------|----------|----------|--9-7-5---------------|-
D|-----------|----------|----------|--------7-5-----------|-
A|-----------|-5r--5-5--|-5r--5-5--|------------7-5-------|-
E|-(2)--2-2--|----------|----------|----------------7-5r--|-
 F#m     D     
It's closer to the truth to say you can't get enough
 D      
You're gonna have to face it you're addicted to love


Bridge: 02:36
G|----------------|----------------|----------------|----------------|
D|----------------|----------------|----------------|----------------|
A|---5---3r-------|---5---3r-------|---3---1r-------|---3---1r-------|
E|-5---5----5-3-5-|-5---5----5-3-5-|-3---3----3-1-3-|-3---3----3-1-3-|
 A
Might as well face it, you're addicted to love
 G
Might as well face it, you're addicted to love
G|----------------|----------------|----------------|----------------|
D|----------------|----------------|----------------|----------------|
A|---5---3r---3-5-|---5---3r---3-5-|---5---3r---3-5-|---5---3r---3-5-|
E|-5---5----5-----|-5---5----5-----|-5---5----5-----|-5---5----5-----|
 A
Might as well face it, you're addicted to love
 D
Might as well face it, you're addicted to love


Break: 02:53 (vocals only)
Might as well face it, you're addicted to love


Instrumental: 02:57 (play X1)
  A                 A               G                 G
G|----------------|----------------|----------------|----------------|
D|----------------|----------------|----------------|----------------|
A|---5---3r-------|---5---3r-------|---3---1r-------|---3---1r-------|
E|/5---5----5-3-5-|-5---5----5-3-5-|-3---3----3-1-3-|-3---3----3-1-3-|
  D                 D                A                A
G|----------------|----------------|----------------|----------------|
D|----------------|----------------|----------------|----------------|
A|---5---3r---3-5-|---5---3r---3-5-|---5---3r---3-5-|---5---3r---3-5-|
E|-5---5----5-----|-5---5----5-----|-5---5----5-----|-5---5----5-----|


Verse 3: 03:14
G|----------------|----------------|----------------|----------------|
D|----------------|----------------|----------------|----------------|
A|---5---3r-------|---5---3r-------|---3---1r-------|---3---1r-------|
E|-5---5----5-3-5-|-5---5----5-3-5-|-3---3----3-1-3-|-3---3----3-1-3-|
 A      
The lights are on, but you're not home
 G      
Your will is not your own
G|----------------|----------------|----------------|----------------|
D|----------------|----------------|----------------|----------------|
A|---5---3r---3-5-|---5---3r---3-5-|---5---3r---3-5-|---5---3r-------|
E|-5---5----5-----|-5---5----5-----|-5---5----5-----|-5---5----5-3-2-|
 D     
You're heart sweats and teeth grind
 A      
Another kiss and you'll be mine

Chorus: 03:31
G|-----------|----------|----------------|----------------|-
D|-----------|----------|----------------|----------------|-
A|-----------|-5r--5-5--|---5---3r---3-5-|---5---3r-------|-
E|-(2)--2-2--|----------|-5---5----5-----|-5---5----5-3-2-|-
 F#m     D     
Wow, You like to think that you're immune to the stuff, 
 A      
oh yeah
G|-----------|----------|----------|--9-7-5---------------|-
D|-----------|----------|----------|--------7-5-----------|-
A|-----------|-5r--5-5--|-5r--5-5--|------------7-5-------|-
E|-(2)--2-2--|----------|----------|----------------7-5r--|-
 F#m     D     
It's closer to the truth to say you can't get enough
 D      
You're gonna have to face it you're addicted to love


Outro: 03:49  play till fade out  XX 
G|----------------|----------------|----------------|----------------|
D|----------------|----------------|----------------|----------------|
A|---5---3r-------|---5---3r-------|---3---1r-------|---3---1r-------|
E|-5---5----5-3-5-|-5---5----5-3-5-|-3---3----3-1-3-|-3---3----3-1-3-|
 A
Might as well face it, you're addicted to love
 G
Might as well face it, you're addicted to love
G|----------------|----------------|----------------|----------------|
D|----------------|----------------|----------------|----------------|
A|---5---3r---3-5-|---5---3r---3-5-|---5---3r---3-5-|---5---3r---3-5-|
E|-5---5----5-----|-5---5----5-----|-5---5----5-----|-5---5----5-----|
 A
Might as well face it, you're addicted to love
 D
Might as well face it, you're addicted to love


            
Submit corrections

↑ Back to top | Tablatures and chords for acoustic guitar and electric guitar, ukulele, drums are parodies/interpretations of the original songs. You may use it for private study, scholarship, research or language learning purposes only