Home » R » Robert Johnson »

Robert Johnson - Preachin Blues Tabs

Artists:  A B C D E F G H I J K L M N O P Q R S T U V W X Y Z # 

Preachin Blues Tabs

(ver. 1) Click to play this song!
Robert Johnson
Preachin' Blues Robert Johnson Tab In Open D Tuning:
& Sony 64916), copyright notice.


D  ||----------------12--12--|--12--12--12--12\-----------------|
A  ||----------------12--12--|--12--12--12--12\-0-0-0-----------|
F# ||----------------12--12--|--12--12--12--12\-0-0-0--0--0--0--|
D  ||------------------------|------------------0-0-0--------0--|
A  ||------------------------|----------------------------------|
D  ||------------------------|----------------------------3--3--|


-----0--0--0--0--0--0--0--0--0-------------|--12-----10\----3--------0-----|
--------------------------------0----------|-------------------------------|
--0-----------------------------0--x-x---x-|---------------------x---------|
--0-----------------------------0--x-x-0-x-|------0------0-----0---x---0-x-|
--0--3--3-----2--------1-----0-------------|------0------0-------------0---|
-------------------------------------------|-------------------------------|


--12-----10\----3--------0-----|--12-----10\----3--------0-----|
-------------------------------|-------------------------------|
---------------------x---------|---------------------x---------|
------0------0-----0---x---0-x-|------0------0-----0---x---0-x-|
------0------0-------------0---|------0------0-------------0---|
-------------------------------|-------------------------------|


--12-----10\----3--------0-----|--12-----10-----3--------0-----|
-------------------------------|---------10--------------------|
---------------------x---------|---------------------x---------|
------0------0-----0---x---0-x-|------0------0-----0---x---0-x-|
------0------0-------------0---|-------------------------------|
-------------------------------|-------------------------------|


--12-----10/-12--3--------0-----|--12-----12-----3--------0-----|
--------------------------------|-------------------------------|
----------------------x---------|---------------------x---------|
------0------0----------x---0-x-|------0------0-----0---x---0-x-|
------0------0------0-----------|-------------------------------|
--------------------------------|-------------------------------|


--12-----11/-12--3---0----0--|--16\----12-----3--------0-----|
---------11/-12------0----0--|-------------------------------|
-----------------------x-----|---------------------x---------|
------0------0---------------|------0------0-----0---x---0-x-|
-----------------------------|-------------------------------|
-----------------------------|-------------------------------|


--12-----11/-12--3--------0-----|--12-----12-----3--------0-----|
---------11/-12-----------------|-------------------------------|
----------------------x---------|---------------------x---------|
------0------0------0---x---0-x-|------0------0-----0---x---0-x-|
--------------------------------|-------------------------------|
--------------------------------|-------------------------------|

--12-----11/-12--3--------0-----|--12--12--12-----3--------0-----|
--12-----11/-12-----------0-----|--12--12--12--------------------|
--12-----11/-12-------x-----0---|--12--12--12--------------------|
------0-------------0-------0-x-|------0-------0-----0-x-----0-x-|
--------------------------------|------------------------x-------|
------------------------3-------|--------------------------------|


--12-----11/-12--3--0---------|--------------------------|
------------------------------|--------------------------|
------------------------------|--------------------------|
------0------0---------12\-9--|----0------0----0------0--|
------------------------------|-------2/4---------2/4----|
------------------------------|--------------------------|


--------------------------------------|-------------0----0--12----|
------------------------------0-------|-------------0----0--12----|
------------------------------0--x----|---------------x-----------|
--12\-3----0-----------0------0--x----|---------------x--0--------|
--------------2/4-5-------2/4---------|--3--3--2--2---------------|
--------------------------------------|---------------------------|


-----------------------------|--12----12----3--0--------|
-----------------------------|--12----12----------5--5--|
-----------------------0--0--|--12----12----------------|
--0--0--0-----------0--0--0--|--------------------------|
-----------3--x--2--0--0--0--|--------------------------|
-----------------------------|--------------------------|


-------------0--------0-----|--12----12--12--0--3--0--------|--------------0--------||
----------0--0--------0--0--|--12----12--12--0--------5--5--|--------------0--------||
----------0--------0--0--0--|--12----12--12--0--------------|-----------0--0--------||
------2/4-0-----0--0-----0--|--12---------------------------|-------2/4-0-----------||
-------------------0--------|-------------------------------|----0------0-----------||
----------------------------|-------------------------------|-----------------------||
            
Submit corrections

↑ Back to top | Tablatures and chords for acoustic guitar and electric guitar, ukulele, drums are parodies/interpretations of the original songs. You may use it for private study, scholarship, research or language learning purposes only