» » »

Riverside - Under The Pillow Tabs

Artists:  A B C D E F G H I J K L M N O P Q R S T U V W X Y Z # 

Under The Pillow Tabs

(ver. 1) Click to play this song!
Riverside
 Rating:
4.4/5 (11 votes)

 Under The Pillow  lessons Tabs too difficult? Try these video lessons and learn fast
 
                [Intro]

e|-----------------------------0------|
B|-------------------------------0----|
G|-----4------4--------4--------------|
D|---4------4--------4------4---------| X4
A|--------0------0h2------2-----------|
E|-2----------------------------------|


[Verse]

e|-----------------------------0-------------------------------0------|
B|-------------------------------0-------------------------------0----|
G|-----4------4--------4----------------4------4--------4-------------|
D|---4------4--------4------4---------4------4--------4-----4---------|
A|--------0------0h2------2----------------0------0h2-----------------|
E|-2--------------------------------2---------------------0-----------|
                                                                       X2
e|-----------------------------0--------------------------------0-----|
B|-------------------------------0--------------------------------0---|
G|-----4------4--------4----------------4------4--------4-------------|
D|---4------4--------4------4---------4------4--------4------4--------|
A|--------0------0h2------2----------------0------0h2-----------------|
E|-2--------------------------------2----------------------0----------|

e|----------------------------5-----4------------|
B|-----7-----5-----4----------------------7---7--|
G|---6---6-----6------------6---6-----6----------|
D|-4-------4-----4--------4-------4-----4---4----|
A|-----------------------------------------------|
E|-----------------------------------------------|
                                                  X3
e|----------------------------5-----4------------|
B|-----7-----5-----4-----------------------------|
G|---6---6-----6------------6---6----------------|
D|-4-------4-----4--------4-------4--------------|
A|-----------------------------------------------|
E|-----------------------------------------------|


[Verse]

e|---------------------------0------|
B|-----------------------------0----|
G|-----4------4------4--------------|
D|---4------4------4------4---------| X8 
A|--------0-------------2-----------|
E|-2-------------2------------------|

e|-----------5-5-5-------------5-5--|
B|-7-7-7\----7-7-7----7-7-7----7-7--|
G|-6-6-6\----6-6-6----6-6-6----6-6--|
D|-4-4-4\----4-4-4----4-4-4----4-4--|
A|----------------------------------|
E|----------------------------------|


[Chorus]

e|----------------------------------|
B|----------------------------------|
G|----------------------------------|
D|---4-3------------4-3-------------| X3
A|-------4-3-2-0--------4-3-2-0-----|
E|-2--------------2-----------------|

e|----------------|
B|----------------|
G|----------------|
D|----------------|
A|-----2-0--0-2---|
E|-2-0----------2-|


[Bridge]

e|-------------------|
B|-------------------|
G|-------------------|
D|-------------------|
A|-4-2-0-------------|
E|-------2-----------|

e|--------------------|
B|--------------------|
G|--------------------|
D|--------------------|
A|-4-2-0----4-2-0-----|
E|-------2--------2---|

e|--------------------------|
B|--------------------------|
G|----------------10/11\4---|
D|-/4--6--7/9-11------------| X2
A|--------------------------|
E|--------------------------|


[Chorus]

e|----------------------------------|
B|----------------------------------|
G|----------------------------------|
D|---4-3------------4-3-------------| X6
A|-------4-3-2-0--------4-3-2-0-----|
E|-2--------------2-----------------|

e|---------------|
B|---------------|
G|---------------|
D|---------------|
A|-----2-0--0-2--|
E|-2-0-----------|


[Solo]

e|-------------------------------------------------------------------------------------|
B|-------------------------------------------------------------------------------------|
G|-2/4----4b6r4b6--6-4--------------------------------------------------4b6r4b6--4-----|
D|---------------------7----4-2---2-------------/4-x-x-2h4-4 x-2h4-4-2-----------------|
A|------------------------------4---4-2-0----------------------------------------------|
E|----------------------------------------4b5-2----------------------------------------|

PM                 . .          .
e|-0---------------------------------7b9r7b9r7--5-7-5---------------------------------|
B|-5b7--7-5----------5-x-5/7-7-5-7-7------------------7--7-5---5-7--------------------|
G|---------------4/6-----------------------------------------6-----6-4-4b6r4b6-2-4----|
D|----------7--7----------------------------------------------------------------------|
A|------------------------------------------------------------------------------------|
E|------------------------------------------------------------------------------------|

e|----5-7-7b9r7------5-7b9r7-7-5-7------------------------------------------16-17-0-17-16b17-16-14-16-|
B|-/7--------------7---------------7-7/-----------------7-0-9-10-0-10-0-12----------------------------|
G|-----------------------------------------6h7p6p4h6h7------------------------------------------------|
D|----------------------------------------------------------------------------------------------------|
A|----------------------------------------------------------------------------------------------------|
E|----------------------------------------------------------------------------------------------------|

e|---16b17--14-16----------14-----------16/17-17-17-17--14/16-16-16-16-12-14-14-14-0-0-12-0-0-12h14-14-14\-|
B|----------------------14---------------------------------------------------------------------------------|
G|----------------16b18-------16b18-16--13/14-14-14-14--11/13-13-13-13--9/11-11-11-------------------------|
D|---------------------------------------------------------------------------------------------------------|
A|---------------------------------------------------------------------------------------------------------|
E|---------------------------------------------------------------------------------------------------------|


[Chorus]

e|----------------------------------|
B|----------------------------------|
G|----------------------------------|
D|---4-3------------4-3-------------| X5
A|-------4-3-2-0--------4-3-2-0-----|
E|-2--------------2-----------------|


[Break]

e|-----------------------|
B|-----------------------|
G|-----------------------|
D|-----------------------|
A|-----2-0------2-0--0-2-|
E|-2-0------2-0----------|

e|----------------------------------------------------|
B|----------------------------------------------------|
G|--------------------------4b6r4b6--pb6r4p2---2------|
D|-------------------------------------------4---4----|
A|-----4-2------4-2--2-4------------------------------|
E|-4-2------4-2-------------------------------------2-|

e|-----------------------|
B|--------------5/7------|
G|----1-2-4-4/6-----4----|
D|-/4--------------------| X6
A|-----------------------|
E|-----------------------|


[Outro]

e|-----------------|
B|-----------------|
G|-----------------|
D|-----/4----------| X8
A|--------4-2-0----|
E|-2-2-------------|

e|--------|
B|--------|
G|--------|
D|-4-4----|
A|-4-4----|
E|-2-2----|            
Submit corrections


        Under The Pillow  lessons Hard to play? Try these video lessons and learn fast Under The Pillow  lessons
        
↑ Back to top | Tablatures and chords for acoustic guitar and electric guitar, ukulele, drums are parodies/interpretations of the original songs. You may use it for private study, scholarship, research or language learning purposes only