» » »

Riverside - Towards The Blue Horizon Tabs

Artists:  A B C D E F G H I J K L M N O P Q R S T U V W X Y Z # 

Towards The Blue Horizon Tabs

(ver. 1) Click to play this song!
Riverside
 Rating:
4.3/5 (13 votes)

 Towards The Blue Horizon  lessons Tabs too difficult? Try these video lessons and learn fast
 
                Tuning: Standard E


0:00
e|-------------------------------------------------------------
B|----------0------------0----------0---------0----------------
G|------6------------6----------6---------6--------------------
D|----7---7-------7----7------7---7-----7---7------------------
A|--0-----------0-----------0---------0------------------------
E|-------------------------------------------------------------

e|-------------------------------------------------------------
B|----------0------------0----------0---------0----------------
G|------6------------6----------6---------6--------------------
D|----7---7-------7----7------7---7-----7---7------------------
A|--5-----------5-----------5---------5------------------------
E|------------------------------------------------------------- a lot of times

0:35
e|-------------------------------------------------------------
B|----------5------------5----------5---------5----------------
G|------4------------4----------4---------4--------------------
D|----5---5-------5----5------5---5-----5---5------------------
A|--3-----------3-----------3---------3------------------------
E|-------------------------------------------------------------

e|-------------------------------------------------------------
B|----------3------------3----------3---------3----------------
G|------2------------2----------2---------2--------------------
D|----3---3-------3----3------3---3-----3---3------------------
A|--1-----------1-----------1---------1------------------------
E|-------------------------------------------------------------

0:52
e|-------------------------------------------------------------
B|----------0------------0----------0---------0----------------
G|------6------------6----------6---------6--------------------
D|----7---7-------7----7------7---7-----7---7------------------
A|--0-----------0-----------0---------0------------------------
E|-------------------------------------------------------------

e|-------------------------------------------------------------
B|----------0------------0----------0---------0----------------
G|------6------------6----------6---------6--------------------
D|----7---7-------7----7------7---7-----7---7------------------
A|--5-----------5-----------5---------5------------------------
E|------------------------------------------------------------- a lot of times

1:10
e|-------------------------------------------------------------
B|----------5------------5----------5---------5----------------
G|------4------------4----------4---------4--------------------
D|----5---5-------5----5------5---5-----5---5------------------
A|--3-----------3-----------3---------3------------------------
E|-------------------------------------------------------------

e|-------------------------------------------------------------
B|----------3------------3----------3---------3----------------
G|------2------------2----------2---------2--------------------
D|----3---3-------3----3------3---3-----3---3------------------
A|--1-----------1-----------1---------1------------------------
E|-------------------------------------------------------------


1:27 (not entirely sure about this section)
e|-------------------------------------------------------------
B|----------0------------0----------0---------0----------------
G|------2------------2----------2---------2--------------------
D|----3---3-------3----3------3---3-----3---3------------------
A|--0-----------0-----------2---------2------------------------
E|-------------------------------------------------------------


e|-------------------------------------------------------------
B|----------0------------0----------0---------0----------------
G|------2------------2----------2---------2--------------------
D|----2---2-------2----2------2---2-----2---2------------------
A|--------------------------3---------3------------------------
E|--3-----------3----------------------------------------------

e|-------------------------------------------------------------
B|----------0------------0----------0---------0----------------
G|------2------------2----------2---------2--------------------
D|----2---2-------2----2------2---2-----2---2------------------
A|--2-----------2----------------------------------------------
E|--------------------------0----------0-----------------------

1:56
e|-------------------------------------------------------------
B|----------0------------0----------0---------0----------------
G|------6------------6----------6---------6--------------------
D|----7---7-------7----7------7---7-----7---7------------------
A|--0-----------0-----------0---------0------------------------
E|-------------------------------------------------------------

e|-------------------------------------------------------------
B|----------0------------0----------0---------0----------------
G|------6------------6----------6---------6--------------------
D|----7---7-------7----7------7---7-----7---7------------------
A|--5-----------5-----------5---------5------------------------
E|------------------------------------------------------------- a lot of times

2:31
e|-------------------------------------------------------------
B|----------5------------5----------5---------5----------------
G|------4------------4----------4---------4--------------------
D|----5---5-------5----5------5---5-----5---5------------------
A|--3-----------3-----------3---------3------------------------
E|-------------------------------------------------------------

e|-------------------------------------------------------------
B|----------3------------3----------3---------3----------------
G|------2------------2----------2---------2--------------------
D|----3---3-------3----3------3---3-----3---3------------------
A|--1-----------1-----------1---------1------------------------
E|-------------------------------------------------------------

2:48 (not entirely sure about this section)
e|-------------------------------------------------------------
B|----------0------------0----------0---------0----------------
G|------2------------2----------2---------2--------------------
D|----3---3-------3----3------3---3-----3---3------------------
A|--0-----------0-----------2---------2------------------------
E|-------------------------------------------------------------


e|-------------------------------------------------------------
B|----------0------------0----------0---------0----------------
G|------2------------2----------2---------2--------------------
D|----2---2-------2----2------2---2-----2---2------------------
A|--------------------------3---------3------------------------
E|--3-----------3----------------------------------------------

e|-------------------------------------------------------------
B|----------0------------0----------0---------0----------------
G|------2------------2----------2---------2--------------------
D|----2---2-------2----2------2---2-----2---2------------------
A|--2-----------2----------------------------------------------
E|--------------------------0----------0-----------------------

3:16
e|-------------------------------------------------------
B|-12-12-12-12--13-13-13-13--15-15-15-15--12-12-12-12----
G|-------------------------------------------------------
D|-------------------------------------------------------
A|-------------------------------------------------------
E|-------------------------------------------------------

e|-------------------------------------------------------
B|-13-13-12-12-10-10-10-10-------------------------------
G|-------------------------------------------------------
D|-------------------------------------------------------
A|-------------------------------------------------------
E|-------------------------------------------------------

3:30 an acoustic part joins the lead electric one
e|-----------------------|
B|-----------------------|
G|-----------------------|
D|------2---2-----2---2--|
A|----2---2-----2---2----|
E|--0---------0----------|

3:42
e|------------------|--------------------------
B|------------------|--------------------------
G|------------------|--------------------------
D|------9-----------|---9-9-9------------------
A|------7-----------|---7-7-7----/7-6-2-5///4--
E|------0-----------|---0-0-0------------------

e|------------------|--------------------------
B|------------------|--------------------------
G|------------------|--------------------------
D|------9-----------|--------9-----------------
A|------7-----------|---x-x--7----/7-6-2-5///4-
E|------0-----------|---x-x--0-----------------

4:00 (not sure about this part) x2
e|-------------------------------------------------------
B|-17-15-0-17-0-17-17-15-0-17-0-17-17-0-17-15------------
G|-------------------------------------------------------
D|-------------------------------------------------------
A|-------------------------------------------------------
E|-------------------------------------------------------

e|-------------------------------------------------------
B|-17-15-0-17-0-17-17-15-20-19-17-0-20-19-17-0-----------
G|-------------------------------------------------------
D|-------------------------------------------------------
A|-------------------------------------------------------
E|-------------------------------------------------------

e|-------------------------------------------------------
B|-17-15-0-17-0-17-17-15-0-17-0-17-17-0-17-15------------
G|-------------------------------------------------------
D|-------------------------------------------------------
A|-------------------------------------------------------
E|-------------------------------------------------------


e|-------------------------------------------
B|-------------------------------------------
G|-------------------------------------------
D|-------------------------------------------
A|-------/7-6-2-5///4------------------------
E|-------------------------------------------

4:17
e|------------------|--------------------------
B|------------------|--------------------------
G|------------------|--------------------------
D|------9-----------|---9-9-9------------------
A|------7-----------|---7-7-7----/7-6-2-5///4--
E|------0-----------|---0-0-0------------------

4:26
e|-----------------------|--------------------------
B|-----------------------|--------------------------
G|------9-9--------------|--------------------------
D|------x-x-------9------|---9----------------------
A|------7-7-x-x-x-7------|---7-----/7-6-2-5///4-----
E|------0-0-x-x-x-0------|---0----------------------

4:35
e|------------------------------------------------|
B|------------------------------------------------|
G|------------------------------------------------|
D|------------------------------------------------|
A|----10-9-7-7---10-9-7-6---10-9-7-7---10-9-7-6---|
E|------------------------------------------------|
  pm-------------------------------------------->

e|------------------------------------------------|
B|------------------------------------------------|
G|------------------------------------------------|
D|------------------------------------------------|
A|----10-9-7-6-10-9-7-6---------------------------|
E|------------------------------------------------|
  pm-------------------------------------------->



4:52 clean guitar with some kind of flanger, figure out the rhythm yourself

e|------------------|-------------------|
B|------------------|-------------------|
G|------9-----------|-------12----------|
D|------x-----------|--------x----------|
A|------7-----------|-------10----------|
E|------------------|-------------------|


e|------------------|-------------------|
B|------------------|-------------------|
G|------8-----------|--------5----------|
D|------x-----------|--------x----------|
A|------6-----------|--------3----------|
E|------------------|-------------------|



e|------------------|
B|------------------|
G|------4-----------|
D|------x-----------|
A|------2-----------|
E|------------------|

5:10 (not sure about this part) x2
e|-------------------------------------------------------
B|-17-15-0-17-0-17-17-15-0-17-0-17-17-0-17-15------------
G|-------------------------------------------------------
D|-------------------------------------------------------
A|-------------------------------------------------------
E|-------------------------------------------------------

e|-------------------------------------------------------
B|-17-15-0-17-0-17-17-15-20-19-17-0-20-19-17-0-----------
G|-------------------------------------------------------
D|-------------------------------------------------------
A|-------------------------------------------------------
E|-------------------------------------------------------

e|-------------------------------------------------------
B|-17-15-0-17-0-17-17-15-0-17-0-17-17-0-17-15------------
G|-------------------------------------------------------
D|-------------------------------------------------------
A|-------------------------------------------------------
E|-------------------------------------------------------


e|-------------------------------------------
B|-------------------------------------------
G|-------------------------------------------
D|-------------------------------------------
A|-------/7-6-2-5///4------------------------
E|-------------------------------------------

5:27
e|------------------------------------------------|
B|------------------------------------------------|
G|------------------------------------------------|
D|------------------------------------------------|
A|----10-9-7-7---10-9-7-6---10-9-7-7---10-9-7-6---|
E|------------------------------------------------|
  pm-------------------------------------------->

e|------------------------------------------------|
B|------------------------------------------------|
G|------------------------------------------------|
D|------------------------------------------------|
A|----10-9-7-6-10-9-7-6---------------------------|
E|------------------------------------------------|
  pm-------------------------------------------->


5:44
e|-----------------------|
B|-----------------------|
G|-----------------------|
D|------2---2-----2---2--|
A|----2---2-----2---2----|
E|--0---------0----------|x4

5:54

e|-------------------------------------------------------------
B|----------0------------0----------0---------0----------------
G|------0------------0----------0---------0--------------------
D|----2---2-------2----2------4---4-----4---4------------------
A|--3-----------3-----------5---------5------------------------
E|-------------------------------------------------------------


e|-------------------------------------------------------------
B|----------0------------0----------0---------0----------------
G|------0------------0----------0---------0--------------------
D|----7---7-------7----7------4---4-----4---4------------------
A|--7-----------7-----------5---------5------------------------
E|------------------------------------------------------------- x8

and the 9th time:
e|-------------------------------------------------------------
B|----------0------------0----------0---------0----------------
G|------0------------0----------0---------0--------------------
D|----2---2-------2----2------4---4-----4---4------------------
A|--3-----------3-----------5---------5------------------------
E|-------------------------------------------------------------

7:07
e|------------------------------------------------|
B|------------------------------------------------|
G|------------------------------------------------|
D|------------------------------------------------|
A|----10-9-7-7---10-9-7-6---10-9-7-7---10-9-7-6---|
E|------------------------------------------------|
  pm-------------------------------------------->

e|------------------------------------------------|
B|------------------------------------------------|
G|------------------------------------------------|
D|------------------------------------------------|
A|----10-9-7-6-10-9-7-6---------------------------|
E|------------------------------------------------|
  pm-------------------------------------------->

7:16
e|------------------|--------------------------
B|------------------|--------------------------
G|------------------|--------------------------
D|------9-----------|---9-9-9------------------
A|------7-----------|---7-7-7----/7-6-2-5///4--
E|------0-----------|---0-0-0------------------


e|-----------------------|--------------------------
B|-----------------------|--------------------------
G|------9-9--------------|--------------------------
D|------x-x-------9------|---9----------------------
A|------7-7-x-x-x-7------|---7-----/7-6-2-5///4-----
E|------0-0-x-x-x-0------|---0----------------------

7:34
e|-------------------------------------------------------
B|-17-15-0-17-0-17-17-15-0-17-0-17-17-0-17-15------------
G|-------------------------------------------------------
D|-------------------------------------------------------
A|-------------------------------------------------------
E|-------------------------------------------------------

e|-------------------------------------------------------
B|-17-15-0-17-0-17-17-15-20-19-17-0-20-19-17-0-----------
G|-------------------------------------------------------
D|-------------------------------------------------------
A|-------------------------------------------------------
E|-------------------------------------------------------

e|-------------------------------------------------------
B|-17-15-0-17-0-17-17-15-0-17-0-17-17-0-17-15------------
G|-------------------------------------------------------
D|-------------------------------------------------------
A|-------------------------------------------------------
E|-------------------------------------------------------


e|-------------------------------------------
B|-------------------------------------------
G|-------------------------------------------
D|-------------------------------------------
A|-------/7-6-2-5///4------------------------
E|-------------------------------------------

7:52
e|------------------
B|------------------
G|------------------
D|------9-----------
A|------7-----------
E|------0-----------and let ring            
Submit corrections


        Towards The Blue Horizon  lessons Hard to play? Try these video lessons and learn fast Towards The Blue Horizon  lessons
        
↑ Back to top | Tablatures and chords for acoustic guitar and electric guitar, ukulele, drums are parodies/interpretations of the original songs. You may use it for private study, scholarship, research or language learning purposes only