Home » R » Riverside »

Riverside - Through The Other Side Tabs

Artists:  A B C D E F G H I J K L M N O P Q R S T U V W X Y Z # 

Through The Other Side Tabs

(ver. 1) Click to play this song!
Riverside
Standard tuning, no capo, use an acoustic and let all those notes ring.


Intro/Verse

e|------------------------0--------------|
B|------------------0-------0-----0------|
G|------------4-------4-------4-----4----|
D|-------4------4-------4----------------|
A|----------------0-------------0--------|
E|---2-----2-----------------------------|

Chorus

e|-----------0-----------0---------------|
B|-------------0---0-------0-----0-------|
G|-------4-----------4-------4-----4-----|
D|---------4-----------4-----------------|
A|---2-----------0-------------0---------|
E|---------------------------------------|

e|-----------2-----------0---------------|
B|-------------0---0-------0-----0-------|
G|-------4-----------4-------4-----4-----|
D|---------4-----------4-----------------|
A|---2-----------0-------------0---------|
E|---------------------------------------|
            
Submit corrections

↑ Back to top | Tablatures and chords for acoustic guitar and electric guitar, ukulele, drums are parodies/interpretations of the original songs. You may use it for private study, scholarship, research or language learning purposes only