» » »

Riverside - The Curtain Falls Tabs

Artists:  A B C D E F G H I J K L M N O P Q R S T U V W X Y Z # 

The Curtain Falls Tabs

(ver. 1) Click to play this song!
Riverside
 Rating:
4.2/5 (30 votes)

 The Curtain Falls  lessons Tabs too difficult? Try these video lessons and learn fast
 
                [Intro]

e|----------------------------10-11-10-----------------------------------|
B|--------11-13------------11----------11-11/13---13b15-11-13------------|
G|-12-----------12------12------------------------------------12---------|
D|-----------------------------------------------------------------------|
A|-----------------------------------------------------------------------|
E|-----------------------------------------------------------------------|

e|----------------------10-11-10-----------------------------------------|
B|----11-13/15\------11----------11-11/13---13b15br13-11-13--------------|
G|-12-------------12----------------------------------------12-----------|
D|-----------------------------------------------------------------------|
A|-----------------------------------------------------------------------|
E|-----------------------------------------------------------------------|

e|-----------------------------------------------------------------------|
B|-13-11----13-11----13-11----13-11----13-11-----------------------------|
G|-------12-------12-------12-------12-------12-10-12--------------------|
D|-----------------------------------------------------------------------|
A|-----------------------------------------------------------------------|
E|-----------------------------------------------------------------------|
                                                                          X2
e|-----------------------------------------10--13--10--------------------|
B|-----------------------------------------------------11----------------|
G|-12-10----12-10----12-10----12-10-----12-------------------------------|
D|-------12-------12-------12-------12-----------------------------------|
A|-----------------------------------------------------------------------|
E|-----------------------------------------------------------------------|


[Verse]

e|-----------------------------------------------------------------------|
B|-------------------------------------------------------8---------------|
G|------------------------------------------10b12br10-10---10------------|
D|-----------------------10-8-10\8/10-------------------------10---------|
A|------10\8/10----------------------------------------------------------|
E|-8-10------------------------------------------------------------------|

e|-----------------------------------------------------------------------|
B|------8-9-8------------------------------------------------------------|
G|----8-------8/10------pb12-12pb12pb12pbr-10----8h10p8-7h8p7------------|
D|-10----------------------------------------------------------8/10------|
A|-----------------------------------------------------------------------|
E|-----------------------------------------------------------------------|

e|-----------------------------------|
B|------8-9-8------------------------|
G|----8-------8/10-------8/10-10\8---|
D|-10--------------------------------|
A|-----------------------------------|
E|-----------------------------------|


[Solo]

e|------------------10-11-10----10-------------------------------------------|
B|-13b15--13-----13----------13----11/13---13-13\11-11-11\8-8---6------------|
G|---------------------------------------------------------------------------|
D|---------------------------------------------------------------------------|
A|---------------------------------------------------------------------------|
E|---------------------------------------------------------------------------|

e|-10-11-10----10--------13b15--pb15br13-11--------10-11----10-11/13-11-10---|
B|----------13----13----------------------------13-------13------------------|
G|---------------------------------------------------------------------------|
D|---------------------------------------------------------------------------|
A|---------------------------------------------------------------------------|
E|---------------------------------------------------------------------------|

e|-----------------------------------|
B|-8-8-9-8----8----------------------|
G|---------12------10-8--------------|
D|-----------------------8/10--------|
A|-----------------------------------|
E|-----------------------------------|


[Verse]

e|---------------------------------------------------------------------------|
B|---------------------------------------------------------------------------|
G|---------------------------------10b12--pbr12br10--------------------------|
D|-----------------10-8-8/10------------------------10-----------------------|
A|-10\8/10-------------------------------------------------------------------|
E|---------------------------------------------------------------------------|

e|----------------------------|
B|----------------------------|
G|----------------------------|
D|----------------------------|X16
A|-1h3-3-3-3-3-3-3-3-3-3-3-3--|
E|----------------------------|

e|---------------------------------------------------------------------------|
B|--------13-11--------------------------13-11-------------------------------|
G|-----12-------12--------------------12-------12----------------------------|
D|-/10----------------------------/10----------------------------------------|
A|---------------------------------------------------------------------------|
E|---------------------------------------------------------------------------|

e|-------------------------10-11-13---11h13p11--10---------------------------|
B|-13b15-pb15br13------------------------------------13-11-------------------|
G|----------------12---------------------------------------12----------------|
D|---------------------------------------------------------------------------|
A|---------------------------------------------------------------------------|
E|---------------------------------------------------------------------------|

e|---------------------------------------------------------------------------|
B|--------13-11--------------------------13-11-------------------------------|
G|-----12-------12--------------------12-------12----------------------------|
D|-/10----------------------------/10----------------------------------------|
A|---------------------------------------------------------------------------|
E|---------------------------------------------------------------------------|

e|-13-----------------13-------------------------------------------------------|
B|----11----13-11--------11b12br11----13-11------------------------------------|
G|-------10-------10---------------10-------10---------------------------------|X3
D|-----------------------------------------------------------------------------|
A|-----------------------------------------------------------------------------|
E|-----------------------------------------------------------------------------|

e|-15-------15--------15--------------15--------16-15----16-15-----16-15----16-15----|
B|----13-------13--------13b14br13-------13-----------13-------13--------13-------13-|
G|-------15-------15---------------15-------15---------------------------------------|
D|-----------------------------------------------------------------------------------|
A|-----------------------------------------------------------------------------------|
E|-----------------------------------------------------------------------------------|

e|-15-------15--------15-------15--------16-15----16-15----16-15----16-15-----/18--|
B|----16-------16--------16-------16-----------13-------13-------13------13--------|
G|-------17-------17--------17-------17--------------------------------------------|
D|---------------------------------------------------------------------------------|
A|---------------------------------------------------------------------------------|
E|---------------------------------------------------------------------------------|

e|---------------------------------------------------------------------------------|
B|---------------------------------------------------------------------------------|
G|-5-5-x-5--------5-5-x-5--------------------5-5-x-5-------5-5-x-5-----------------|
D|-5-5-x-5--------5-5-x-5-------x-x--x-x-----5-5-x-5-------5-5-x-5-----------------|
A|-3-3-x-3--------3-3-x-3-------x-x--x-x-----5-3-x-3-------3-3-x-3-----------------|
E|-3-3-x-3--------3-3-x-3-------x-x--x-x-----3-3-x-3-------3-3-x-3-----------------|

e|---------------------------------------------------------------|
B|---------------------------------------------------------------|
G|---------------------------------5-----------------------------|
D|---4---4--------4---4----------4---4---4----4---4--------------|
A|-3---3---3----3---3---3------3-------3----3---3---3------------|
E|-----------2------------2---------------------------2----------|

e|---------------------------------------------------------------|
B|---------------------------------------------------------------|
G|---6---6-5-6-----6---6--------6-5-6-5-6------------------------|
D|-5-4-5-4---4---5-4-5-4-5----5-4---4---4--5-6-5-----------------|
A|-3---3---------3---3---3-4--3------------3-4-3-----------------|
E|-------------------------2-------------------------------------|
PM . . . .   .   . . . . . .  . .   .   .  . . . 


[Outro]
e|----------------------------|
B|----------------------------|
G|----------------------------|
D|----------------------------|
A|-1h3-3-3-3-3-3-3-3-3-3-3-3--|
E|----------------------------|

e|------------------------------------------------------------------13b15--------|
B|-11\-----------------------------13\----pb15br13-----pb11br8-------------------|
G|------------12\---------12\----------------------------------------------------|
D|-------------------------------------------------------------------------------|
A|-------------------------------------------------------------------------------|
E|-------------------------------------------------------------------------------|

e|-13-11-10----10------------------------------------13-11-10--------------------|
B|----------13-------------------------------------------------13-11-------------|
G|-------------------10h12-12--12-12--------10/12\10-------------------12-10-----|
D|-------------------------------------10-12---------------------------------12--|
A|-------------------------------------------------------------------------------|
E|-------------------------------------------------------------------------------|

e|-------------------------------------------------------15\--------15-13--------|
B|-------11-------------13b15br13----13b15br13-----15\---16\---18---------16\----|
G|-10TR12----10h12---------------------------------------------------------------|
D|-------------------------------------------------------------------------------|
A|-------------------------------------------------------------------------------|
E|-------------------------------------------------------------------------------|

e|----------------------------|
B|----------------------------|
G|--15------------------------|
D|----------15\---------------|
A|----------------------------|
E|----------------------------|            
Submit corrections


        The Curtain Falls  lessons Hard to play? Try these video lessons and learn fast The Curtain Falls  lessons
        
↑ Back to top | Tablatures and chords for acoustic guitar and electric guitar, ukulele, drums are parodies/interpretations of the original songs. You may use it for private study, scholarship, research or language learning purposes only