» » »

Riverside - Reality Dream Iii Tabs

Artists:  A B C D E F G H I J K L M N O P Q R S T U V W X Y Z # 

Reality Dream Iii Tabs

(ver. 1) Click to play this song!
Riverside
 Rating:
4.3/5 (13 votes)

 Reality Dream Iii lessons Tabs too difficult? Try these video lessons and learn fast
 
                [Intro]

e|----------------------------------------------------------------------------------|
B|--15/16\15/16\15--16--15--13---------------------------13-------------------------|
G|------------------------------15--14--12--12/13--13-15----------------------------|
D|-----------------------------------------------------------12-13-12-10-12-8/10----| 
A|----------------------------------------------------------------------------------|
E|----------------------------------------------------------------------------------|

e|----------------------------------------------------------------------------------|
B|-16--15--13---------------------------13------------------------------------------|
G|-------------15--14--12--12/13--13-15---------------------------------------------|
D|------------------------------------------12-13-12-10-12-8/10---------------------|
A|----------------------------------------------------------------------------------|
E|----------------------------------------------------------------------------------|


[1:24]

e|-------------------------------|
B|-------------------------------|
G|-------------------------------|
D|-------------------------------| X2
A|------6-5----------------------|
E|-/8-8-----8-6-8--8-8-8-6/11----|
PM    . . . . . .  . . .

e|-------------------------------|
B|-------------------------------|
G|-------------------------------|
D|-------------------------------| X2
A|------1-0----------------------|
E|--3-3-----3-1-3-3-3-1/6--------|
PM    . . . . . . . .

e|-------------------------------|
B|-------------------------------|
G|-------------------------------|
D|-------------------------------| X5
A|------6-5----------------------|
E|--8-8-----8-6-8--8-8-8-6/11----|
PM    . . . . . .  . . .

e|-------------------------------|
B|-------------------------------|
G|-------------------------------|
D|-------------------------------| 
A|------6-5----------------------|
E|--8-8-----8-6-8--8-8-8-6/10----|
PM    . . . . . .  . . .

e|-------------------------------|
B|-------------------------------|
G|-------------------------------|
D|-------------------------------| X2
A|------1-0----------------------|
E|--3-3-----3-1-3-3-3-1/6--------|
PM    . . . . . . . .

e|-------------------------------|
B|-------------------------------|
G|-------------------------------|
D|-------------------------------| X4
A|------6-5----------------------|
E|--8-8-----8-6-8--8-8-8-6/11----|
PM    . . . . . .  . . . 
  

[2:02]

e|-------------------------------|
B|---------------------------4---|
G|---3-5-5-3-5\----3-5-5-3-5-----|
D|-5-------------5---------------|
A|-------------------------------|
E|-------------------------------|
              *
e|---------------------------------------------|
B|---------------------------4-------4---------|
G|---3-5-5-3-5\----3-5-5-3-5-----3-5---5-5-----|
D|-5-------------5-------------5---------------|
A|---------------------------------------------|
E|---------------------------------------------|
             *
e|---------------------------------------------|
B|----------------------------4----------------|
G|---3-5-5-3-5\----3-5-5-3-5------3-5-5-3-5----|
D|-5-------------5--------------5--------------|
A|---------------------------------------------|
E|---------------------------------------------|
              *
e|-11b13-10h11p10----------------|
B|----------------13-11----------|
G|----------------------12-10----| Not Sure 
D|-------------------------------|
A|-------------------------------|
E|-------------------------------|


[2:22]

e|-------------------------13b15-15b13-11-11--10-11-13-10-11----10----10-------|
B|-16--15--13------------------------------------------------13----11----10----|
G|-------------15--14--12------------------------------------------------------|
D|-----------------------------------------------------------------------------|
A|-----------------------------------------------------------------------------|
E|-----------------------------------------------------------------------------|


e|-------------------13----------13b15-15b13-11-11--10-11-13-10-11----10----10-------|
B|-16--15--13--15-16-----16--15------------------------------------13----11----10----|
G|-----------------------------------------------------------------------------------|
D|-----------------------------------------------------------------------------------|
A|-----------------------------------------------------------------------------------|
E|-----------------------------------------------------------------------------------|


[3:00]

e|-------------------------------|
B|-------------------------------|
G|-------------------------------|
D|-------------------------------| X4
A|------6-5----------------------|
E|--8-8-----8-6-8--8-8-8-6/11----|
PM    . . . . . .  . . .

e|-------------------------------|
B|-----4-3-------------4b5br4----|
G|-5-5-----5-3-5-5-5-3-----------|
D|-------------------------------| X3
A|-------------------------------|
E|-------------------------------|

e|-------------------------------|
B|-----4-3-------------4b5br4----|
G|-5-5-----5-3-5-5-5-3--------5--|
D|-------------------------------| 
A|-------------------------------|
E|-------------------------------|

e|-------------------------------|
B|-----18------------------------|
G|--------------------17---------|
D|-------------------------------| 
A|-------------------------------|
E|-------------------------------|


[Guitar Break]

e|----------------10-11-13--11-10\--10-11-10----10-11----------------------|
B|-13b15-13-----X----------------------------13-------13-------------------|
G|----------12--------------------------------------------12-10------------|
D|---------------------------------------------------------------8-10-8----|
A|-------------------------------------------------------------------------|
E|-------------------------------------------------------------------------|


[Outro]

e|-------------------|
B|-11p8--------------|
G|------8p7-5-8-5----|
D|-------------------|
A|-------------------|
E|-------------------|
PM          . . .

e|-------------------|
B|-------------------|
G|--------5----------|
D|-------------------|
A|-------------------|
E|-------------------|
          *            
Submit corrections


        Reality Dream Iii lessons Hard to play? Try these video lessons and learn fast Reality Dream Iii lessons
        
↑ Back to top | Tablatures and chords for acoustic guitar and electric guitar, ukulele, drums are parodies/interpretations of the original songs. You may use it for private study, scholarship, research or language learning purposes only