» » »

Riverside - Panic Room Tabs

Artists:  A B C D E F G H I J K L M N O P Q R S T U V W X Y Z # 

Panic Room Tabs

(ver. 1) Click to play this song!
Riverside
 Rating:
3.8/5 (20 votes)

 Panic Room  lessons Tabs too difficult? Try these video lessons and learn fast
 
                
0:15
e|------------------------------------------------------------------------------------------|
B|-----------------------------------12-------------------------------13-10-12--------------|
G|------------------9--------------------12----9-----------------9--------------------------|
D|-------------/7------------------------------------------/7-------------------------------|
A|------------------------------------------------------------------------------------------|
E|------------------------------------------------------------------------------------------|


0:37
e|-----------------------------------------------------|------------------------------------------------------|
B|-----------------------------------------------------|------------------------------------------------------|
G|-----------------------------------------------------|------------------------------------------------------|
D|-----------------------------------------------------|------------------------------------------------------|
A|----------7--------------------------5---------------|---------7------------------------5-------------------|
E|---5h6-------6--5--6p5------5h6----------6--5--------|---5h6------6--5--6p5------5h6--------6--5-----5------|


0:58
e|------------------------------------------------------------------------------------------|
B|-----------------------------------12-----------------------------------------------------|
G|------------------9--------------------12----9--------------------------------------------|
D|-------------/7---------------------------------------------------------------------------|
A|------------------------------------------------------------------------------------------|
E|------------------------------------------------------------------------------------------|


1:23
e|------------------------------------------------------------------------------------------|
B|-------------------------8----8----8h10---------------------------------------------------|
G|----------------9----9--------------------------------------------------------------------|
D|-------------7----7----7---7----7---------------------------------------------------------|
A|------------------------------------------------------------------------------------------|
E|------------------------------------------------------------------------------------------|

1:45
e|-----------------------------------------------------|------------------------------------------------------|
B|-----------------------------------------------------|------------------------------------------------------|
G|-----------------------------------------------------|------------------------------------------------------|
D|-----------------------------------------------------|------------------------------------------------------|
A|----------7--------------------------5---------------|---------7------------------------5-------------------|
E|---5h6-------6--5--6p5------5h6----------6--5--------|---5h6------6--5--6p5------5h6--------6--5-----5------|

2:09
e|------------------------------------------------------------------------------------------|
B|------------------------------------------------------------------------------------------|
G|------------------------------------------------------------------------------------------|
D|------------------------------------------------------------------------------------------|
A|------------------------------------------------------------------------------------------|
E|----5-5----5-5---5------------------------------------------------------------------------| x4 
PM...................................

e|------------------------------------------------------------------------------------------|
B|------------------------------------------------------------------------------------------|
G|------------------------------------------------------------------------------------------|
D|-----------------------7------------------------------------------------------------------|
A|-----------------------7------------------------------------------------------------------|
E|----5-5----5-5---5-----5------------------------------------------------------------------|  
PM.....................


2:29
e|------------------------------------------------------------------------------------------|
B|-------------------------8----8----8h10---------------------------------------------------|
G|----------------9----9--------------------------------------------------------------------|
D|-------------7----7----7---7----7---------------------------------------------------------|
A|------------------------------------------------------------------------------------------|
E|------------------------------------------------------------------------------------------|

2:51
e|-----------------------------------------------------|------------------------------------------------------|
B|-----------------------------------------------------|------------------------------------------------------|
G|-----------------------------------------------------|------------------------------------------------------|
D|-----------------------------------------------------|------------------------------------------------------|
A|----------7--------------------------5---------------|---------7------------------------5-------------------|
E|---5h6-------6--5--6p5------5h6----------6--5--------|---5h6------6--5--6p5------5h6--------6--5-----5------|

3:13

e|------------------------------------------------------------------------------------------|
B|-----------------------------------12-------------------------------13-10-12--------------|
G|------------------9--------------------12----9-----------------9--------------------------|
D|-------------/7------------------------------------------/7-------------------------------|
A|------------------------------------------------------------------------------------------|
E|------------------------------------------------------------------------------------------|

3:35
e|------------------------------------------------------------------------------------------|
B|-------------------------8----8----8h10---------------------------------------------------|
G|----------------9----9--------------------------------------------------------------------|
D|-------------7----7----7---7----7---------------------------------------------------------|
A|------------------------------------------------------------------------------------------|
E|------------------------------------------------------------------------------------------|

3:57
e|-----------------------------------------------------|------------------------------------------------------|
B|-----------------------------------------------------|------------------------------------------------------|
G|-----------------------------------------------------|------------------------------------------------------|
D|-----------------------------------------------------|------------------------------------------------------|
A|----------7--------------------------5---------------|---------7------------------------5-------------------|
E|---5h6-------6--5--6p5------5h6----------6--5--------|---5h6------6--5--6p5------5h6--------6--5-----5------|

            
Submit corrections


        Panic Room  lessons Hard to play? Try these video lessons and learn fast Panic Room  lessons
        
↑ Back to top | Tablatures and chords for acoustic guitar and electric guitar, ukulele, drums are parodies/interpretations of the original songs. You may use it for private study, scholarship, research or language learning purposes only