» » »

Riverside - Lost Why Should I Be Frightened By A Hat Tabs

Artists:  A B C D E F G H I J K L M N O P Q R S T U V W X Y Z # 

Lost Why Should I Be Frightened By A Hat Tabs

(ver. 1) Click to play this song!
Riverside
 Rating:
2.5/5 (22 votes)

 Lost Why Should I Be Frightened By A Hat  lessons Tabs too difficult? Try these video lessons and learn fast
 
                0:31
e|---------------------------------------------------------------------------|
B|---------7b--7--7--7br-7b--7--------------------------7--------------------|
G|-----------------------------5--5--4h5p4----4h5p4-5s7----------------------|
D|-----------------------------------------7---------------------------------|
A|---------------------------------------------------------------------------|
E|---------------------------------------------------------------------------|


0:43
e|---------------------------------------------------------------------------|
B|---------------------------------------------------------------------------|
G|------2---2---2------2---2---2------2---2---2---5-----2---2----------------|
D|----0---0---0------0---0---0------0---0---0---0-----0---0---0--------------|x2
A|---------------------------------------------------------------------------|
E|---------------------------------------------------------------------------|


1:05
e|---------------------------------------------------------------------------|
B|----13--13-13--12---8----8--8-7-5---3----3-5--7----------------------------|
G|---------------------------------------------------------------------------|
D|---------------------------------------------------------------------------|x2
A|---------------------------------------------------------------------------|
E|---------------------------------------------------------------------------|

1:23
e|---------------------------------------------------------------------------|
B|---------------------------------------------------------------------------|
G|-----5--4--2--5--4--2--5--4--2-----2---------------------------------------|
D|---------------------------------5---5--4----------------------------------|x2
A|---------------------------------------------------------------------------|
E|---------------------------------------------------------------------------|


1:46
e|---------------------------------------------------------------------------|
B|----13--13-13--12---8----8--8-7-5---3----3-5--7----------------------------|
G|---------------------------------------------------------------------------|
D|---------------------------------------------------------------------------|
A|---------------------------------------------------------------------------|
E|---------------------------------------------------------------------------|


1:56
e|-----------------------------------------5---------------------------------|
B|----13--13-13--12---8----8--8-7-5---3--------------------------------------|
G|---------------------------------------------------------------------------|
D|---------------------------------------------------------------------------|
A|---------------------------------------------------------------------------|
E|---------------------------------------------------------------------------|

2:06
e|---------------------------------------------------------------------------|
B|----13--13-13--12---8----8--8-7-5---3----3-5--7----------------------------|
G|---------------------------------------------------------------------------|
D|---------------------------------------------------------------------------|x2
A|---------------------------------------------------------------------------|
E|---------------------------------------------------------------------------|

2:23
e|---------------------------------------------------------------------------|
B|---------------------------------------------------------------------------|
G|-----7--7-7-7--7-7--5-5-5-5------------------------------------------------|
D|-----7--7-7-7--7-7--5-5-5-5------------------------------------------------|
A|-----5--5-5-5--5-5--3-3-3-3------------------------------------------------|x4
E|---------------------------------------------------------------------------|

2:34 (whole thing 2x)

e|------------------------------------------------------------------------------------|
B|------------------------------------------------------------------------------------|
G|-----7--7-7-7--7-7--5-5-5-5-5s7-7--7-7-7--7-7--5-5-5-5-7--7-7-7--7-7--10-10-10-10---|
D|-----7--7-7-7--7-7--5-5-5-5-5s7-7--7-7-7--7-7--5-5-5-5-7--7-7-7--7-7--10-10-10-10---|
A|-----5--5-5-5--5-5--3-3-3-3-3s5-5--5-5-5--5-5--3-3-3-3-5--5-5-5--5-5--8--8--8--8----|
E|------------------------------------------------------------------------------------|

e|-----------------------------|
B|-----------------------------|
G|-----7--7-7-7--7-7--5-5-5-5--|
D|-----7--7-7-7--7-7--5-5-5-5--|
A|-----5--5-5-5--5-5--3-3-3-3--|
E|-----------------------------|


2:57-3:15
I am sure if it is the guitar that plays the lead here or the keyboards,
but the notes are to be found earlier in the tab anyway

3:15
e|---------------------------------------------------------------------------|
B|---15---13s15s13--12s13s12--10-12-13h15---10-8-7---7h8--7------------------|
G|-------------------------------------------------7--------5----------------|
D|---------------------------------------------------------------------------|
A|---------------------------------------------------------------------------|
E|---------------------------------------------------------------------------|


e|---------------------------------------------------------------------------|
B|----7br---7--8--10--7--8--10----10s22---22-22-22-20-19-20--22--------------|
G|---------------------------------------------------------------------------|
D|---------------------------------------------------------------------------|
A|---------------------------------------------------------------------------|
E|---------------------------------------------------------------------------|


e|----17-17-17p15p14---------------------------------------------------------|
B|--------------------13--15-13-13-13------10-8-7----------------------------|
G|------------------------------------------------7b-------------------------|
D|---------------------------------------------------------------------------|
A|---------------------------------------------------------------------------|
E|---------------------------------------------------------------------------|


3:37 (the rhythm is probably wrong, but the notes are right)
e|----------------------------------------------------------------------------------|
B|----------------------------------------------------------------------------------|
G|----------------------------------------------------------------------------------|
D|----------------------------------------------------------------------------------|x2
A|----3s5-5-5-5--5-5--5-5--3-3s5-5-5-5--5-5--5-5--3-3s5-5-5-5--5-5--5-5-8-8-8-8-----|
E|----------------------------------------------------------------------------------| 
          * * *  * *  * *        * * *  * *  * *        * * *  * *  * *  



4:00-4:36
I am sure if it is the guitar that plays the lead here or the keyboards,
but the notes are to be found earlier in the tab anyway

4:36
e|--------------------15----------------------------------------------------15---|
B|--15-13-15-13-15-13----13-15-13-15-13-15-12-13-12-10-12-13-15-13-15-15-13------|
G|-------------------------------------------------------------------------------|
D|-------------------------------------------------------------------------------|
A|-------------------------------------------------------------------------------|
E|-------------------------------------------------------------------------------|


e|----------17-17-17-17-17b--17--20-20-20-19-17-15-15-15-14-12-10------------|
B|-13-15-13------------------------------------------------------------------|
G|---------------------------------------------------------------------------|
D|---------------------------------------------------------------------------|
A|---------------------------------------------------------------------------|
E|---------------------------------------------------------------------------|


e|--10-8-7----7-8-10-8-7----7-8-10-------------------------------------------|
B|---------10------------10--------------------------------------------------|
G|---------------------------------------------------------------------------|
D|---------------------------------------------------------------------------|
A|---------------------------------------------------------------------------|
E|---------------------------------------------------------------------------|


5:00
e|--------------------15----------------------------------------------------15---|
B|--15-13-15-13-15-13----13-15-13-15-13-15-12-13-12-10-12-13-15-13-15-15-13------|
G|-------------------------------------------------------------------------------|
D|-------------------------------------------------------------------------------|
A|-------------------------------------------------------------------------------|
E|-------------------------------------------------------------------------------|


e|---------------------------------------------------------------------------|
B|--13-15-13-15-13-15b-15--13-15-13-12-13-15-15------------------------------|
G|---------------------------------------------------------------------------|
D|---------------------------------------------------------------------------|
A|---------------------------------------------------------------------------|
E|---------------------------------------------------------------------------|

e|--------------------15----------------------------------------------------15---|
B|--15-13-15-13-15-13----13-15-13-15-13-15-12-13-12-10-12-13-15-13-15-15-13------|
G|-------------------------------------------------------------------------------|
D|-------------------------------------------------------------------------------|
A|-------------------------------------------------------------------------------|
E|-------------------------------------------------------------------------------|

e|---------------------------------------------------------------------------|
B|--13-15-13-15-13-15b-15----------------------------------------------------|
G|---------------------------------------------------------------------------|
D|---------------------------------------------------------------------------|
A|---------------------------------------------------------------------------|
E|---------------------------------------------------------------------------|

5:24
e|---------------------------------------------------------------------------|
B|---------------------------------------------------------------------------|
G|---------------------------------------------------------------------------|
D|---------------------------------------------------------------------------|x8
A|--3-5-5-5-5--3h5---3h5p3---------------------------------------------------|
E|-----------------5-------5-3-5---------------------------------------------|
      * * * *      *       * * *

e|---------------------------------------------------------------------------|
B|---------------------------------------------------------------------------|
G|---------------------------------------------------------------------------|
D|---------------------------------------------------------------------------|
A|----3h5--------------------------------------------------------------------|
E|---------------------------------------------------------------------------|
            
Submit corrections


        Lost Why Should I Be Frightened By A Hat  lessons Hard to play? Try these video lessons and learn fast Lost Why Should I Be Frightened By A Hat  lessons
        
↑ Back to top | Tablatures and chords for acoustic guitar and electric guitar, ukulele, drums are parodies/interpretations of the original songs. You may use it for private study, scholarship, research or language learning purposes only