» » »

Riverside - Lament Tabs

Artists:  A B C D E F G H I J K L M N O P Q R S T U V W X Y Z # 

Lament Tabs

(ver. 1) Click to play this song!
Riverside
 Rating:
4.4/5 (8 votes)

 Lament lessons Tabs too difficult? Try these video lessons and learn fast
 
                [Intro]

0:00 - 0:41

e|-----------------------------|---------------------------------|
B|----------0------------------|----------0----------------------|
G|--------0---0--------0-------|--------0---0--------0-----------|
D|------7------------0---0-----|------7------------0---0---------|
A|----7------------7-------7---|----7------------7---------------|
E|--5------------0-------------|--5------------0-----------------|


[Chorus]

0:42 - 1:15

e|---------------------|---------------------------|-----------------------------------|
B|---------------------|---------------------------|-----------------------------------|
G|---------------------|--5------------------------|---5---7-7-------------------------|
D|---7----7------------|--5-----7--7-7-7-----------|---5---7-7--7--7-------------------|
A|---7----7------------|--3-----7--7-7-7-----------|---3---5-5--7--7-------------------|
E|---5----5---5-5-5-5--|--3-----5--5-5-5---5-5-5-5-|---3---5-5--5--5--5-5-5-5----------|
           PM * * * *                    PM* * * *                  PM* * * *

e|------------------------------------------------------------------------------------|
B|------------------------------|-----------------------------------------------------|
G|---5----5---------------------|---5--7----------------------------------------------|
D|---5----5---7--7-7-7----------|---5--7----------------------------------------------|
A|---3----3---7--7-7-7----------|---3--5----------------------------------------------|
E|---3----3---5--5-5-5--5-5-5-5-|---3--5----------------------------------------------|
                      PM* * * *                                           
  
[Pre-Verse]

1:15 - 1:29

e|-----------------------------|---------------------------------|
B|----------0------------------|----------0----------------------|
G|--------0---0--------0-------|--------0---0--------0-----------|
D|------7------------0---0-----|------7------------0---0---------|
A|----7------------7-------7---|----7------------7---------------|
E|--5------------0-------------|--5------------0-----------------|



[Verse 2]

1:29 - 1:55

These two chords back and forth

e|----------|---0--------|
B|----1-----|---0--------|
G|----2-----|---0--------|
D|----2-----|---2--------|
A|----0-----|---2--------|
E|----------|---0--------|


[Wasteland theme reprise]

1:56 - 2:22



e|----------|------|---3----|------|
B|----------|---1--|---3----|--1---|
G|----1-----|---2--|---0----|--2---|
D|----2-----|---2--|---0----|--2---|
A|----2-----|---0--|---2----|--0---|
E|----0-----|------|---3----|------|x3

e|----------|------|---3----|------|
B|----------|---1--|---3----|------|
G|----1-----|---2--|---0----|--1---|
D|----2-----|---2--|---0----|--2---|
A|----2-----|---0--|---2----|--2---|
E|----0-----|------|---3----|--0---|


[Chorus]

2:22 - 2:56

e|---------------------|---------------------------|-----------------------------------|
B|---------------------|---------------------------|-----------------------------------|
G|---------------------|--5------------------------|---5---7-7-------------------------|
D|---7----7------------|--5-----7--7-7-7-----------|---5---7-7--7--7-------------------|
A|---7----7------------|--3-----7--7-7-7-----------|---3---5-5--7--7-------------------|
E|---5----5---5-5-5-5--|--3-----5--5-5-5---5-5-5-5-|---3---5-5--5--5--5-5-5-5----------|
           PM * * * *                    PM* * * *                  PM* * * *

e|------------------------------------------------------------------------------------|
B|------------------------------|-----------------------------------------------------|
G|---5----5---------------------|---5--7----------------------------------------------|
D|---5----5---7--7-7-7----------|---5--7----------------------------------------------|
A|---3----3---7--7-7-7----------|---3--5----------------------------------------------|
E|---3----3---5--5-5-5--5-5-5-5-|---3--5----------------------------------------------|
                      PM* * * *    
                        


[Acoustic Breakdown]

2:56 - 3:46

e|---------------------|--------------|-------------|----------------------------|
B|---------------------|--------------|-------------|----------------------------|
G|---------5---5---5---|--4---4---4---|--4---4---4--|--2---2---2-----------------|
D|-----------2---2---2-|----2---2---2-|---0---0---0-|---0---0---0----------------|
A|---------------------|--------------|-------------|----------------------------|
E|---------------------|--------------|-------------|----------------------------|

e|---------------------|-------------------------------------------------------|
B|---------------------|-------------------------------------------------------|
G|---------2---2---2---|-1---1-2s4---------------------------------------------|
D|-----------3---3---3-|---2---------------------------------------------------|
A|---------------------|-------------------------------------------------------|
E|---------------------|-------------------------------------------------------|

[Solo]

3:46 - 4:22



e|-----------------------------|-------------------------------------------------|
B|-----------------------------|-------------------------------------------------|
G|----14-14-14-14----9-7-9--9--|----14--14-14--12--14--17--14-17--12-12--14--9---|
D|-----------------------------|-------------------------------------------------|
A|-----------------------------|-------------------------------------------------|
E|-----------------------------|-------------------------------------------------|




e|--------------------------|--------------------------------------------------|
B|--------------------------|------------------------15-17-17-20-20--22--------|
G|---\14-9-7-7--9-5h7p5--2--|---14-14--14--12-14-17----------------------------|
D|--------------------------|--------------------------------------------------|
A|--------------------------|--------------------------------------------------|
E|--------------------------|--------------------------------------------------|


[Chorus]

4:22 - 4:44

e|---------------------|---------------------------|-----------------------------------|
B|---------------------|---------------------------|-----------------------------------|
G|---------------------|--5------------------------|---5---7-7-------------------------|
D|---7----7------------|--5-----7--7-7-7-----------|---5---7-7--7--7-------------------|
A|---7----7------------|--3-----7--7-7-7-----------|---3---5-5--7--7-------------------|
E|---5----5---5-5-5-5--|--3-----5--5-5-5---5-5-5-5-|---3---5-5--5--5--5-5-5-5----------|
           PM * * * *                    PM* * * *                  PM* * * *

e|------------------------------------------------------------------------------------|
B|------------------------------|-----------------------------------------------------|
G|---5----5---------------------|-----------------------------------------------------|
D|---5----5---7--7-7-7----------|-----------------------------------------------------|
A|---3----3---7--7-7-7----------|-----------------------------------------------------|
E|---3----3---5--5-5-5--5-5-5-5-|-----------------------------------------------------|
                      PM* * * *    

{Outro]

4:56 - 5:04


e|-----------------------------|--------------------------5-------|
B|----------0------------------|----------0---------------5-------|
G|--------0---0--------0-------|--------0---0--------0----5-------|
D|------7------------0---0-----|------7------------0---0--7-------|
A|----7------------7-------7---|----7------------7--------7-------|
E|--5------------0-------------|--5------------0----------5-------|
             
Submit corrections


        Lament lessons Hard to play? Try these video lessons and learn fast Lament lessons
        
↑ Back to top | Tablatures and chords for acoustic guitar and electric guitar, ukulele, drums are parodies/interpretations of the original songs. You may use it for private study, scholarship, research or language learning purposes only