» » »

Riverside - Found The Unexpected Flaw Of Searching Tabs

Artists:  A B C D E F G H I J K L M N O P Q R S T U V W X Y Z # 

Found The Unexpected Flaw Of Searching Tabs

(ver. 1) Click to play this song!
Riverside
 Rating:
4.3/5 (12 votes)

 Found The Unexpected Flaw Of Searching  lessons Tabs too difficult? Try these video lessons and learn fast
 
                verse pattern

e|-5-------5-------5-------5-------|-8-------8-------8-------8-------|
B|---5-------5-------5-------5-----|---8-------8-------8-------8-----|
G|-----0-------0-------0-------0---|-----0-------0-------0-------0---|
D|-------4-------4-------4-------4-|-------7-------7-------7-------7-|
A|-5-------5-------5-------5-------|-8-------8-------8-------8-------|
E|---------------------------------|---------------------------------|

e|-3-------3-------3-------3-------|-0-------0-------0-------0-------|
B|---3-------3-------3-------3-----|---3-------3-------3-------3-----|
G|-----0-------0-------0-------0---|-----0-------0-------0-------0---|
D|-------2-------2-------2-------2-|-------2-------2-------2-------2-|
A|-3-------3-------3-------3-------|-3-------3-------3-------3-------|
E|---------------------------------|---------------------------------|

chorus pattern - I think - I'm slightly unsure of the last two chords 
(Bm11th and Dsus4) in bar 3, but I think it's right - any advice/corrections 
greatly appreciated

e|-3-------3-------3-------3-------|-0-------0-------0-------0-------|
B|---3-------3-------3-------3-----|---3-------3-------3-------3-----|
G|-----0-------0-------0-------0---|-----0-------0-------0-------0---|
D|-------2-------2-------2-------2-|-------2-------2-------2-------2-|
A|-0-------0-------0-------0-------|-3-------3-------3-------3-------|
E|---------------------------------|---------------------------------|

e|-3-------3-------0-------3-------|-0-------0-------0-------0-------|
B|---3-------3-------3-------3-----|---3-------3-------3-------3-----|
G|-----0-------0-------2-------2---|-----0-------0-------0-------0---|
D|-------0-------0-------0-0-----0-|-------2-------2-------2-------2-|
A|-----------------2---------------|-3-------3-------3-------3-------|
E|-3-------3-----------------------|---------------------------------|
            
Submit corrections


        Found The Unexpected Flaw Of Searching  lessons Hard to play? Try these video lessons and learn fast Found The Unexpected Flaw Of Searching  lessons
        
↑ Back to top | Tablatures and chords for acoustic guitar and electric guitar, ukulele, drums are parodies/interpretations of the original songs. You may use it for private study, scholarship, research or language learning purposes only