» » »

Riverside - Coda Tabs

Artists:  A B C D E F G H I J K L M N O P Q R S T U V W X Y Z # 

Coda Tabs

(ver. 1) Click to play this song!
Riverside
 Rating:
2.5/5 (25 votes)

 Coda lessons Tabs too difficult? Try these video lessons and learn fast
 
                First bit - play 3 times: -

D|---------0-----------0-----------0-----------0-----------0-----------0-----------0-----------0------|
A|-------0---0-------0---0-------0---0-------0---0-------0---0-------0---0-------0---0-------0---0----|
G|-----7-----------7-----------7-----------7-----------7-----------7-----------7-----------7----------|
D|---7-----------7-----------7-----------7-----------7-----------7-----------7-----------7------------|
G|-7-----------7-----------5-----------5-----------0-----------0-----------7-----------7--------------|
D|----------------------------------------------------------------------------------------------------|

Then on the 4th time through stop on the last B note

D|---------0-----------0-----------0-----------0-----------0-----------0-----------0------------------|
A|-------0---0-------0---0-------0---0-------0---0-------0---0-------0---0-------0---0----------------|
G|-----7-----------7-----------7-----------7-----------7-----------7-----------7----------------------|
D|---7-----------7-----------7-----------7-----------7-----------7-----------7------------------------|
G|-7-----------7-----------5-----------5-----------0-----------0-----------7-----------7--------------|
D|----------------------------------------------------------------------------------------------------|

and play the second bit (repeat until the end): -

D|---------0-----------0-----------0-----------0---|
A|-------0---0-------0---0-------0---0-------0---0-|
G|-----7-----------7-----------7-----------7-------|
D|---7-----------7-----------7-----------7---------|
G|-------------0-----------7-----------7-----------|
D|-7-----------------------------------------------|
            
Submit corrections


        Coda lessons Hard to play? Try these video lessons and learn fast Coda lessons
        
↑ Back to top | Tablatures and chords for acoustic guitar and electric guitar, ukulele, drums are parodies/interpretations of the original songs. You may use it for private study, scholarship, research or language learning purposes only