» » »

Riverside - Artificial Smile Tabs

Artists:  A B C D E F G H I J K L M N O P Q R S T U V W X Y Z # 

Artificial Smile Tabs

(ver. 1) Click to play this song!
Riverside
 Rating:
4.3/5 (21 vote)

 Artificial Smile  lessons Tabs too difficult? Try these video lessons and learn fast
 
                [Intro]

e|------------------------------------------------------|
B|------------------------------------------------------|
G|------------------------------------------------------|
D|------------------------------------------------------|
A|--------------5-------5-5----------------5-------5-5--|
E|-0-0-0--0/3-3---0/3-3-------0-0-0--0/3-3---0/3-3------|
                                                         X2
e|------------------------------------------------------|
B|------------------------------------------------------|
G|------------------------------------------------------|
D|------------------------------------------------------|
A|--------------5-------5-5---------------5-------5-5---|
E|-0-0-0--0/3-3---0/3-3------0-0-0--0/3-3---0/3-3-------|


[Pre-Verse]

e|------------------------------------------------------------|
B|--------------------9---------------------9-10-12--13--12---|
G|-10--9--7----10--9-------10--9--7--10--9--------------------|
D|------------------------------------------------------------|
A|------------------------------------------------------------|
E|------------------------------------------------------------|

e|------------------------------------|
B|--------9-----------------9-10-12---|
G|-10--9-----10--9--7--10-9-----------|
D|------------------------------------|
A|------------------------------------|
E|------------------------------------|


[Verse]

e|-----------------------------------------------------------|
B|-----------------------------------------------------------|
G|-----------------------------------------------------------|
D|-----------------------------5-----------------------------|
A|-8-8-5-7--8-8-5-7---8-8-5-7----8-7-5-7--8-8-5-7--8-8-5-7---|
E|-----------------------------------------------------------|
PM . . . .  . . . .   . . . .  . . . . .  . . . .  . . . .     
                          
e|-----------------------------------------------------------|
B|-----------------------------------------------------------|
G|-----------------------------------------------------------|
D|-----------------------------5-----------------------------|
A|-8-7-5-7--8-8-7-5---8-8-5-7----8-8-5-7--8-8-5-7--8-8-5-7---|
E|-----------------------------------------------------------|
PM . . . .  . . . .   . . . .  . . . . .  . . . .  . . . .

e|-----------------------------------------------------------|
B|-----------------------------------------------------------|
G|-----------------------------------------------------------|
D|-----------------------------5-----------------------------|
A|-8-8-5-7--8-8-5-7---8-8-5-7----8-7-5-7--8-8-5-7--8-8-5-7---|
E|-----------------------------------------------------------|
PM . . . .  . . . .   . . . .  . . . . .  . . . .  . . . .

e|-----------------------------------------------------------|
B|-----------------------------------------------------------|
G|-----------------------------------------------------------|
D|-----------------------------5-----------------------------|
A|-8-7-5-7--8-8-7-5---8-8-5-7----8-8-5-7--8-8-5-7----7-------|
E|-----------------------------------------------------------|
PM . . . .  . . . .   . . . .  . . . . .  . . . .  

e|------------------------------------------------------|
B|------------------------------------------------------|
G|------------------------------------------------------|
D|------------------------------------------------------|
A|--------------5-------5-5----------------5-------5-5--|
E|-0-0-0--0/3-3---0/3-3-------0-0-0--0/3-3---0/3-3------|
                                                         
e|------------------------------------------------------|
B|------------------------------------------------------|
G|------------------------------------------------------|
D|------------------------------------------------------|
A|--------------5-------5-5---------------5-------5-5---|
E|-0-0-0--0/3-3---0/3-3------0-0-0--0/3-3---0/3-3-------|

e|------------------------------------|
B|--------9-----------------9-10-12---|
G|-10--9-----10--9--7--10-9-----------|
D|------------------------------------|
A|------------------------------------|
E|------------------------------------|


[Chorus]

e|------------------------------------------------------|
B|------------------------------------------------------|
G|------------------------------------------------------|
D|------------------------------------------------------|
A|--------------5-------5-5----------------5-------5-5--|
E|-0-0-0--0/3-3---0/3-3-------0-0-0--0/3-3---0/3-3------|
                                                         X2
e|------------------------------------------------------|
B|------------------------------------------------------|
G|------------------------------------------------------|
D|------------------------------------------------------|
A|--------------5-------5-5---------------5-------5-5---|
E|-0-0-0--0/3-3---0/3-3------0-3-3--0/3-3---0/3-3-------|


[Verse]

e|------------------------------------------------------------|
B|------------------------------------------------------------|
G|------------------------------------------------------------|
D|------------------------------------------------------------|
A|-8-8-5-7--8-8-5-7---8-8-5-7---8-8-5-7--8-8-5-7--8-8-5-7-----|
E|------------------------------------------------------------|
PM . . . .  . . . .   . . . .   . . . .  . . . .  . . . .          X2 
   
e|------------------------------------------------------------|
B|------------------------------------------------------------|
G|------------------------------------------------------------|
D|-5----------------------------------------------------------|
A|---8-7-5-7---8-8-7-5---8-8-5-7---8-8-5-7--8-8-5-7--8-8-5-7--|
E|------------------------------------------------------------|
PM . . . . .   . . . .   . . . .   . . . .  . . . .  . . . .

e|------------------------------------------------------------|
B|------------------------------------------------------------|
G|------------------------------------------------------------|
D|------------------------------------------------------------|
A|-8-8-5-7---8-8-5-7---8-8-5-7---8-8-5-7---8-8-5-7---8-8-5-7--|
E|------------------------------------------------------------|
PM . . . .   . . . .   . . . .   . . . .   . . . .   . . . .


[Bridge]

e|------------------------------------------------------------|
B|------------------------------------------------------------|
G|-------------------------7-7---------------------------7-7--|
D|-------------------------7-7---------------------------7-7--|
A|-------------------------5-5---------------------------5-5--|
E|-0--0h1/3-3---0-0h1/3-3-------0--0h1/3-3---0--0h1/3-3-------|


[Break]

e|------------------------------------------|
B|-----------------------------------8------|
G|-------/9---/9--9h10p9p7--9h10p9-7---7----|
D|-/7---------------------------------------|
A|------------------------------------------|
E|------------------------------------------|

e|-------------------------------------------|
B|-------------------------------------------|
G|-------------------------------------------|
D|------------------------------------5------| X2
A|-8-8-7-5--7-8-7-5--8-8-7-5--7-8-7-5---7----|
E|-------------------------------------------|
PM . . . .  . . . .  . . . .  . . . . . .

e|---------12----12h13p12p10--12h13p12-10-15-10----|
B|-/10--10-----------------------------------------|
G|-------------------------------------------------|
D|-------------------------------------------------|
A|-------------------------------------------------|
E|-------------------------------------------------|

e|-------------------------------------------|
B|-------------------------------------------|
G|-------------------------------------------|
D|------------------------------------5------| X2
A|-8-8-7-5--7-8-7-5--8-8-7-5--7-8-7-5---7----|
E|-------------------------------------------|
PM . . . .  . . . .  . . . .  . . . . . .

e|----------------------------------------------|
B|----------------------------------------------|
G|----------------------------------------------|
D|--9-9-9-9----9-9-9-9----9-9-9-9----9-9-9-9----| X2
A|--7-7-7-7----7-7-7-7----7-7-7-7----7-7-7-7----|
E|--7-7-7-7----7-7-7-7----7-7-7-7----7-7-7-7----|
  PM. . . .    . . . .    . . . .    . . . .

e|----------------------------------------------|
B|------------/10----9--------------------------|
G|----------------10---9-10-7-9----7------------|
D|-9----------------------------10---9-10-9-----| X2
A|-7--------------------------------------------|
E|-7--------------------------------------------|
                      PM  . .

e|-12----15-10-12----------12----15-10-12-----------|
B|----------------13-12-------------------13-12-12\-|
G|--------------------------------------------------|
D|--------------------------------------------------|
A|--------------------------------------------------|
E|--------------------------------------------------|

e|------------------------------------------------------------------------|
B|-------8-------------------8----------------------------8---------------|
G|-/9------7-9--------4/9------7-9------------------/9------7-9-----------|
D|-------------10-9----------------10-9----9h10p7N--------------10-9N-----|
A|------------------------------------------------------------------------|
E|------------------------------------------------------------------------|

e|-------------------------------------------|
B|-------------------------------------------|
G|-------------------------------------------|
D|------------------------------------5------| X2
A|-8-8-7-5--7-8-7-5--8-8-7-5--7-8-7-5---7----|
E|-------------------------------------------|
PM . . . .  . . . .  . . . .  . . . . . .

e|-------------------------------------------|
B|-------------------------------------------|
G|-------------------------------------------|
D|------------------------------------5------|
A|-8-8-7-5--7-8-7-5--8-8-7-5--7-8-7-5---7----|
E|-------------------------------------------|

e|-------------------------|
B|-------------------------|
G|-------------------------|
D|--9-9-9-9----9-9-9-9-----| 
A|--7-7-7-7----7-7-7-7-----|
E|--7-7-7-7----7-7-7-7-----|
  PM. . . .    . . . .    

e|------------------------|
B|------------------------|
G|-------/9---/9--9h10p7--|
D|-/7---------------------|
A|------------------------|
E|------------------------|

e|-------------------------------------------|
B|-------------------------------------------|
G|-------------------------------------------|
D|------------------------------------5------| 
A|-8-8-7-5--7-8-7-5--8-8-7-5--7-8-7-5---7----|
E|-------------------------------------------|
PM . . . .  . . . .  . . . .  . . . . . .

e|---------12----12h13p10----|
B|-/10--10-------------------|
G|---------------------------|
D|---------------------------|
A|---------------------------|
E|---------------------------|

e|-----------/12--------------------------------------------------10/12---|
B|-12--10----------12h13p12p10-12-10------10---10/12-10------10-----------|
G|--------10-------------------------9--9----9----------9--9--------------|
D|------------------------------------------------------------------------|
A|------------------------------------------------------------------------|
E|------------------------------------------------------------------------|
 PM        .                       .     .                 .


[Chorus]

e|------------------------------------------------------|
B|------------------------------------------------------|
G|------------------------------------------------------|
D|------------------------------------------------------|X4
A|--------------5-------5-5----------------5-------5-5--|
E|-0-0-0--0/3-3---0/3-3-------0-0-0--0/3-3---0/3-3------|
                                                         
e|------------------------------------------------------|
B|------------------------------------------------------|
G|------------------------------------------------------|
D|------------------------------------------------------|X2
A|--------------5-------5-5----------------5-------5-5--|
E|-0-0-0--0/3-3---0/3-3-------0-0-0--0/3-3---0/3-3------|
 PM. . .                      . . .                      


[Outro]

e|-------------------------------------------------------------------------------------------|
B|-------------------------------------------------------------------------------------------|
G|-------------------------------------------------------------------------------------------|
D|-------------------------------------------------------------------------------------------|
A|---------------------------------------------2-3-4-5-6--2-3-4-5-6--2-3-4-5-6--2-3-4-5-6----|
E|-0-1-2-3-4--0-1-2-3-4--0-1-2-3-4--0-1-2-3-4--0-1-2-3-4--0-1-2-3-4--0-1-2-3-4--0-1-2-3-4----|
PM . . . . .  . .  . . . . . . . .  . . . . .  . . . . .  . . . . .  . . . . .  . . . . .
e|-------------------------------------------------------------------------------------------|
B|-------------------------------------------------------------------------------------------|
G|-------------------------------------------------------------------------------------------|
D|-----------------------------------------------------------------------------------------2-|
A|-2-3-4-5-6--2-3-4-5-6--2-3-4-5-6--2-3-4-5-6--2-3-4-5-6--2-3-4-5-6--2-3-4-5-6--2-3-4-5-6--2-|
E|-0-1-2-3-4--0-1-2-3-4--0-1-2-3-4--0-1-2-3-4--0-1-2-3-4--0-1-2-3-4--0-1-2-3-4--0-1-2-3-4--0-|
            
Submit corrections


        Artificial Smile  lessons Hard to play? Try these video lessons and learn fast Artificial Smile  lessons
        
↑ Back to top | Tablatures and chords for acoustic guitar and electric guitar, ukulele, drums are parodies/interpretations of the original songs. You may use it for private study, scholarship, research or language learning purposes only