» » »

Riverside - Afloat Tabs

Artists:  A B C D E F G H I J K L M N O P Q R S T U V W X Y Z # 

Afloat Tabs

(ver. 1) Click to play this song!
Riverside
 Rating:
4.4/5 (7 votes)

 Afloat  lessons Tabs too difficult? Try these video lessons and learn fast
 
                Pattern 1:

E|-------------|-----------------|-------------|-------------------|
B|-------------|-----------------|-------------|-------------------|
G|-------------|-----------------|-------------|-------------------|
D|---3-3---2-2-|---3-3---2-3-2---|---3-3---2-2-|-----3-3---2-3-2---|
A|-------------|-----------------|-0-----0-----|-0-1-----1-------1-|
D|-0-----0-----|-0-----0-------0-|-------------|-------------------|

Pattern 2:

E|-------------|---------------|-------------|
B|-------------|---------------|-------------|
G|-------------|---------------|-------------|
D|---5-5---3-3-|---5-5---3-5-3-|---3-3---2-2-|
A|-3-----3-----|-3-----3-------|-------------|
D|-------------|---------------|-0-----0-----|

E|-----------------|--------------|---------------|-------------|
B|-----------------|--------------|---------------|-------------|
G|-----------------|--------------|---------------|-------------|
D|---3-3---2-3-2---|----5-5---3-3-|---5-5---3-5-3-|---3-3---2-2-|
A|-----------------|--3-----3-----|-3-----3-------|-1-----1-----|
D|-0-----0-------0-|--------------|---------------|-------------|


[Intro]

E|-------------|-----------------|-------------|-------------------|
B|-------------|-----------------|-------------|-------------------|
G|-------------|-----------------|-------------|-------------------|
D|---3-3---2-2-|---3-3---2-3-2---|---3-3---2-2-|-----3-3---2-3-2---|
A|-------------|-----------------|-0-----0-----|-0-1-----1-------1-|
D|-0-----0-----|-0-----0-------0-|-------------|-------------------| (x3)
                 Dream on,     my pain

E|-------------|-----------------|-------------|-------------------|
B|-------------|-----------------|-------------|-------------------|
G|-------------|-----------------|-------------|-------------------|
D|---3-3---2-2-|---3-3---2-3-2---|---3-3---2-2-|-----3-3---2-3-2---|
A|-------------|-----------------|-0-----0-----|-0-1-----1-------1-|
D|-0-----0-----|-0-----0-------0-|-------------|-------------------|
                 My scar,      my blame


E|-------------|---------------|-------------|
B|-------------|---------------|-------------|
G|-------------|---------------|-------------|
D|---5-5---3-3-|---5-5---3-5-3-|---3-3---2-2-|
A|-3-----3-----|-3-----3-------|-------------|
D|-------------|---------------|-0-----0-----|


E|-----------------|--------------|---------------|-------------|
B|-----------------|--------------|---------------|-------------|
G|-----------------|--------------|---------------|-------------|
D|---3-3---2-3-2---|----5-5---3-3-|---5-5---3-5-3-|---3-3---2-2-|
A|-----------------|--3-----3-----|-3-----3-------|-1-----1-----|
D|-0-----0-------0-|--------------|---------------|-------------|
                                                      Unless and until


E|-------------|-----------------|-------------|-------------------|
B|-------------|-----------------|-------------|-------------------|
G|-------------|-----------------|-------------|-------------------|
D|---3-3---2-2-|---3-3---2-3-2---|---3-3---2-2-|-----3-3---2-3-2---|
A|-------------|-----------------|-0-----0-----|-0-1-----1-------1-|
D|-0-----0-----|-0-----0-------0-|-------------|-------------------|
                Dreamt by     the night

E|-------------|-----------------|-------------|-------------------|
B|-------------|-----------------|-------------|-------------------|
G|-------------|-----------------|-------------|-------------------|
D|---3-3---2-2-|---3-3---2-3-2---|---3-3---2-2-|-----3-3---2-3-2---|
A|-------------|-----------------|-0-----0-----|-0-1-----1-------1-|
D|-0-----0-----|-0-----0-------0-|-------------|-------------------|
                Under        your skin

E|-------------|---------------|-------------|-----------------|--------------|---------------|-------------|
B|-------------|---------------|-------------|-----------------|--------------|---------------|-------------|
G|-------------|---------------|-------------|-----------------|--------------|---------------|-------------|
D|---5-5---3-3-|---5-5---3-5-3-|---3-3---2-2-|---3-3---2-3-2---|----5-5---3-3-|---5-5---3-5-3-|---3-3---2-2-|
A|-3-----3-----|-3-----3-------|-------------|-----------------|--3-----3-----|-3-----3-------|-1-----1-----|
D|-------------|---------------|-0-----0-----|-0-----0-------0-|--------------|---------------|-------------|
                I run through the wind                                         Unless and until


[Solo]

E|-------------|-----------------|-------------|-------------------|
B|-------------|-----------------|-------------|-------------------|
G|-------------|-----------------|-------------|-------------------|
D|---3-3---2-2-|---3-3---2-3-2---|---3-3---2-2-|-----3-3---2-3-2---|
A|-------------|-----------------|-0-----0-----|-0-1-----1-------1-|
D|-0-----0-----|-0-----0-------0-|-------------|-------------------| x2

E|-------------|---------------|-------------|-----------------|--------------|---------------|-------------|
B|-------------|---------------|-------------|-----------------|--------------|---------------|-------------|
G|-------------|---------------|-------------|-----------------|--------------|---------------|-------------|
D|---5-5---3-3-|---5-5---3-5-3-|---3-3---2-2-|---3-3---2-3-2---|----5-5---3-3-|---5-5---3-5-3-|---3-3---2-2-|
A|-3-----3-----|-3-----3-------|-------------|-----------------|--3-----3-----|-3-----3-------|-1-----1-----|
D|-------------|---------------|-0-----0-----|-0-----0-------0-|--------------|---------------|-------------|

E|-------------|-----------------|-------------|-------------------|
B|-------------|-----------------|-------------|-------------------|
G|-------------|-----------------|-------------|-------------------|
D|---3-3---2-2-|---3-3---2-3-2---|---3-3---2-2-|-----3-3---2-3-2---|
A|-------------|-----------------|-0-----0-----|-0-1-----1-------1-|
D|-0-----0-----|-0-----0-------0-|-------------|-------------------|
                Dream on,       my pain

E|-------------|-----------------|-------------|-------------------|
B|-------------|-----------------|-------------|-------------------|
G|-------------|-----------------|-------------|-------------------|
D|---3-3---2-2-|---3-3---2-3-2---|---3-3---2-2-|-----3-3---2-3-2---|
A|-------------|-----------------|-0-----0-----|-0-1-----1-------1-|
D|-0-----0-----|-0-----0-------0-|-------------|-------------------|
                My scar           My thorn

E|-------------|---------------|-------------|-----------------|--------------|---------------|-------------|
B|-------------|---------------|-------------|-----------------|--------------|---------------|-------------|
G|-------------|---------------|-------------|-----------------|--------------|---------------|-------------|
D|---5-5---3-3-|---5-5---3-5-3-|---3-3---2-2-|---3-3---2-3-2---|----5-5---3-3-|---5-5---3-5-3-|---3-3---2-2-|
A|-3-----3-----|-3-----3-------|-------------|-----------------|--3-----3-----|-3-----3-------|-1-----1-----|
D|-------------|---------------|-0-----0-----|-0-----0-------0-|--------------|---------------|-------------|
                You've been a part of me                                       Let me stay afloat            
Submit corrections


        Afloat  lessons Hard to play? Try these video lessons and learn fast Afloat  lessons
        
↑ Back to top | Tablatures and chords for acoustic guitar and electric guitar, ukulele, drums are parodies/interpretations of the original songs. You may use it for private study, scholarship, research or language learning purposes only