» » »

Riverside - Addicted Tabs

Artists:  A B C D E F G H I J K L M N O P Q R S T U V W X Y Z # 

Addicted Tabs

(ver. 1) Click to play this song!
Riverside
 Rating:
4.3/5 (13 votes)

 Addicted  lessons Tabs too difficult? Try these video lessons and learn fast
 
                [Intro]

PM    *  *    * * * *  *  *  * *  *  *    * * * *  *  *   * * * *
e|---------------------------------------------------------------------------|
B|---------------------------------------------------------------------------|
G|---------------------------------------------------------------------------|
D|--------------------------------------------------------5---5--------------|
A|----4--4----4-4-4-4-------------4--4----4-4-4-4----------------------------|
E|---------------------3--3--3-3-------------------3--3-----3---3------------|

[Base]

e|---------------------------------------------------------------------------|
B|---------------------------------------------------------------------------|
G|---------------------------------------------------------------------------|
D|--------------------------------------------------------5---5--------------|
A|----4--4----4-4-4-4-------------4--4----4-4-4-4----------------------------|
E|---------------------3--3--3-3-------------------3--3-----3---3------------|

e|---------------------------------------------------------------------------|
B|---------------------------------------------------------------------------|
G|----6--8--6--8---8--6----6--8--------6--8--6--8---8--6---8-6--8-8----------| x2
D|---------------------------------------------------------------------------|
A|---------------------------------------------------------------------------|
E|---------------------------------------------------------------------------|


[Verse]

e|-----------------------------0----0----------------------------------------|
B|----2-2-2-0-2----2-0-2-2-2-2--------3-3-2-2-0-2-----2----------------------|
G|-------------------------------------------------0-------------------------| x2
D|---------------------------------------------------------------------------|
A|---------------------------------------------------------------------------|
E|---------------------------------------------------------------------------|


[Chorus]

e|----0-0-0--------------------------0-0-0-----------------------------------|
B|----2-------3-3--2-2-----2--3-0----2-------3-3--2-2-----2--3-0--------------|
G|---------------------0------------------------------0----------------------|
D|---------------------------------------------------------------------------|
A|---------------------------------------------------------------------------|
E|---------------------------------------------------------------------------|

e|----0-0-0----------------2-2-2-2-2-0-0-------------------------------------|
B|----2------3-3--2-2--2-------------------2---2---2-----2---2---2-----------|
G|---------------------------------------------------------------------------|
D|-------------------------------------------4---2---------4---2 ------------|
A|---------------------------------------------------------------------------|
E|---------------------------------------------------------------------------|


[Bridge]

e|---------------------------------------------------------------------------|
B|---------------------------------------------------------------------------|
G|---------------------------------------------------------------------------| 
D|---11---11---11-11-11-----5----5---5----5----------------------------------|
A|---11---11---11-11-11-----5----5---5----5----------------------------------|
E|---9----9----9--9--9------3----3---3----3----------------------------------|

e|---------------------------------------------------------------------------|
B|---------------------------------------------------------------------------|
G|---------------------------------------------------------------------------| 
D|---11---11---11-11-11-----5----5---5----5----------------------------------| x4
A|---11---11---11-11-11-----5----5-------------------------------------------|
E|---9----9----9--9--9------3----3-----3----3--------------------------------|

e|---------------------------------------------------------------------------|
B|---------------------------------------------------------------------------|
G|---------------------------------------------------------------------------|
D|---11---11---11-11-11-----11-9---------------------------------------------|
A|---11---11---11-11-11----------10-9----------------------------------------|
E|---9----9----9--9--9----9-----------12-------------------------------------|


[Chorus]

e|----0-0-0--------------------------0-0-0-----------------------------------|
B|----2------3-3--2-2-----2--3-0----2-------3-3--2-2-----2--3-0--------------|
G|---------------------0------------------------------0----------------------|
D|---------------------------------------------------------------------------|
A|---------------------------------------------------------------------------|
E|---------------------------------------------------------------------------|

e|----0-0-0----------------2-2-2-2-2-0-0-------------------------------------|
B|----2------3-3--2-2--2-------------------2---2---2-----2---2---2-----------|
G|---------------------------------------------------------------------------|
D|-------------------------------------------4---2---------4---2 ------------|
A|---------------------------------------------------------------------------|
E|---------------------------------------------------------------------------|


[Bridge 2]

e|---------------------------------------------------------------------------|
B|---------------------------------------------------------------------------|
G|---------------------------------------------------------------------------|
D|--4--4---4---4h6--6--7-7-7p4------4/6--6--6---6---6h7--7--9-9-9p6----------| x2
A|-------7---7----------------------------9---9------------------------------|
E|---------------------------------------------------------------------------|

or

e|-------------------------------------------------------------------------------------------|
B|-------------------------------------------------------------------------------------------|
G|-------------------------------------------------------------------------------------------|
D|---4----4--4--4/6--6--6--6/7--7----7--7--7--7/4/6--6--6--6/7--7--7--7/9--9----9--9--9/4----|
A|---4----4--4--4/6--6--6--6/7--7----7--7--7--7/4/6--6--6--6/7--7--7--7/9--9----9--9--9/4----|
E|---2----2--2--2/4--4--4--4/5--5----5--5--5--5/2/4--4--4--4/5--5--5--5/7--7----7--7--7/2----|


[Chorus]

e|----0-0-0--------------------------0-0-0-----------------------------------|
B|----2------3-3--2-2-----2--3-0----2-------3-3--2-2-----2--3-0--------------|
G|---------------------0------------------------------0----------------------|
D|---------------------------------------------------------------------------|
A|---------------------------------------------------------------------------|
E|---------------------------------------------------------------------------|

e|----0-0-0----------------2-2-2-2-2-0-0-------------------------------------|
B|----2------3-3--2-2--2-------------------2---2---2-----2---2---2-----------|
G|---------------------------------------------------------------------------|
D|-------------------------------------------4---2---------4---2 ------------|
A|---------------------------------------------------------------------------|
E|---------------------------------------------------------------------------|            
Submit corrections


        Addicted  lessons Hard to play? Try these video lessons and learn fast Addicted  lessons
        
↑ Back to top | Tablatures and chords for acoustic guitar and electric guitar, ukulele, drums are parodies/interpretations of the original songs. You may use it for private study, scholarship, research or language learning purposes only