» » »

Rihanna - Work Tabs

Artists:  A B C D E F G H I J K L M N O P Q R S T U V W X Y Z # 

Work Tabs

(ver. 1) Click to play this song!
Rihanna
 Rating:
4.2/5 (30 votes)


 Work  lessons Tabs too difficult? Try these video lessons and learn fast
 
                [Harmonic notes]
D#|---------12------|
A#|-----12------12--|
F#|-----------------|
C#|-----------------|
G#|--5--------------|
D#|-----------------|

[Base notes]
D#|------|-------|-------|-------|
A#|------|-------|-------|-------|
F#|------|-------|-------|-------|
C#|---0--|----2--|----3--|----5--|
G#|------|-------|-------|-------|
D#|--0---|--2----|--3----|--5----|

[All together]
D#|------------|------------|--12--------|------------|
A#|------------|--12--------|------------|--12--------|
F#|------------|------------|------------|------------|
C#|-------0----|-------2----|-------3----|-------5----|
G#|--5---------|------------|------------|------------|
D#|-----0---0--|-----2---2--|-----3---3--|-----5---5--|

[Melody for the chorus] and basically the whole song
D#|--0------------|--1h3p1p0--|
A#|----1-1-1h3-3--|-----------|
F#|---------------|-----------|
C#|---------------|-----------|
G#|---------------|-----------|
D#|---------------|-----------|
            
Submit corrections



        Work  lessons Hard to play? Try these video lessons and learn fast Work  lessons
        
↑ Back to top | Tablatures and chords for acoustic guitar and electric guitar, ukulele, drums are parodies/interpretations of the original songs. You may use it for private study, scholarship, research or language learning purposes only