Home » R » Rico Blanco »

Rico Blanco - Para Hindi Ka Mawala Tabs

Artists:  A B C D E F G H I J K L M N O P Q R S T U V W X Y Z # 

Para Hindi Ka Mawala Tabs

(ver. 1) Click to play this song!
Rico Blanco

may problema  ka??

tumawag ka o magtxt sa numero:09195621341       
wag kalimutang magcomment!!
 
"sa love life mong panis control alt delete"  


Tuning: Standard

pakinggan nyo ung song para masabayan nyo              
kung kelan maglilipat ng chords ok??
INTRO
|-------------------------------------|
|-------------------------------------|
|--7--6--4--2--4--7--9--9/--11/12-----|1
|--7--7--5--0--0--x--x--x---x--x------|   
|--5--5--0--0--0--5--7--7/--9/10------|    
|-------------------------------------|

|-------------------------------------|
|--7----------------------------------|
|--7--6--4--2--4--7--9--9/--11/12-----|2
|--7--7--5--0--0--x--x--x---x--x------|   
|--5--0--0--0--0--5--7--7/--9/10------|    
|-------------------------------------|


VERSE:
 tuloy-toloy lang strum...
|----------------------------------------|
|----------------------------------------|
|--777777---444444---222222----555555----|2x
|--777777---444444---222222----555555----|   
|--555555---222222---000000----333333----|    
|----------------------------------------|
lately......absent...kislap....kapag.....

VERSE 2
|----------------------|
|----------------------|
|--222222---555555-----|2x
|--222222---555555-----|   
|--000000---333333-----|    
|----------------------|
kapag ako...kalang mairita..


CHORUS:same lang sa verse...
|----------------------------------------|
|----------------------------------------|
|--777777---444444---222222----555555----|2x
|--777777---444444---222222----555555----|   
|--555555---222222---000000----333333----|    
|----------------------------------------|
dapat kong..dapat...hindi ka mawala saakin

tapos ulit lang ulit sa next verse......

then ulitin ung intro...at..umungol..haha..
tapos balik sa verse2....katamad na itype eh...
lastly ulitin ang chorus....

banatan ng ganito sa ending!!
|----------------------|
|----------------------|
|--7-6-7-6-7-6-6-------|
|--7-7-7-7-7-7-7-------|   
|--5-5-5-5-5-5-5-------|    
|----------------------|

e2 ung lyrics...ung mga naka capital letters,dun kayo papasok...

VERSE:
LATELY..
Parang ABSENT..sa iyong mata'ng
KISLAP..na dati'y automatic
KAPAG..ako'y nakikita
MAYBE...
Wala ka lang sa mood o di kaya
PAGOD..kaya hindi ko na
BINI-bring up sa'yo
VERSE:2
Kapag AKO ay nangulit
Baka ka LANG ma irita
PAG..nag makaawa
BAKA ka ma suka
CHORUS:
Ano ba'ng DAPAT kong gawin
Ano na'ng DAPAT kong gawin
Para HINDI ka mawala sa akin

Ano ba'ng DAPAT kong gawin
Ano ba'ng DAPAT kong gawin
Para HINDI ka mawala
Para HINDI ka mawala

SOMETIMES....
Medyo NAKAKAINIS nga 'ko
Alam ko YAN, nagsisikap nga 'kong MAGBAGO
DAHIL
Mahal na MAHAL na mahal kita
I always PRAY to God to keep you near
NEVER ever disappear

PAG diniscuss ko pa
MA-WI-WEIRD-AN ka lang
PAG nag-emote ako
LALO kang tatabang
REPEAT CHORUS 2X//
            
Submit corrections

↑ Back to top | Tablatures and chords for acoustic guitar and electric guitar, ukulele, drums are parodies/interpretations of the original songs. You may use it for private study, scholarship, research or language learning purposes only