Home » R » Rick Pino »

Rick Pino - I Can Hear The Sound Chords

Artists:  A B C D E F G H I J K L M N O P Q R S T U V W X Y Z # 

I Can Hear The Sound Chords

(ver. 2) Click to play this song!
Rick Pino
-------------------------------------------------------------------------------
                      I Can Hear The Sound - Rick Pino
-------------------------------------------------------------------------------

Tuning: Standard

I love this song and I couldn't find the chords anywhere so I picked them out by ear
The Ramp's new album - The Summoning. This is my first tab. It sounds right when I play
with the CD. The whole song is basically these chords played over and over. Have fun 
and worshipping.

e|---------4---------4---------2---------4-----------------------------------|
B|--------5---------2---------2---------4------------------------------------|
G|-------6---------2---------4---------6-------------------------------------|
D|------6---------2---------4---------6--------------------------------------|
A|-----4---------0---------2---------4---------------------------------------|
E|----x---------x---------x---------x----------------------------------------|
            
Submit corrections

↑ Back to top | Tablatures and chords for acoustic guitar and electric guitar, ukulele, drums are parodies/interpretations of the original songs. You may use it for private study, scholarship, research or language learning purposes only