Home » R » Rick James »

Rick James - Ghetto Life Tabs

Artists:  A B C D E F G H I J K L M N O P Q R S T U V W X Y Z # 

Ghetto Life Tabs

(ver. 1) Click to play this song!
Rick James
[Intro/Chorus]
E|-----------------------------------------------------------------------------------------|
B|-----------------------------------------------------------------------------------------|
G|-----------------------------------------------------------------------------------------|
D|---------3-----5--3-5--3-----0-3-3-2--3--2-3---------5-----5--3-5--3-----3-3-2-----------|
A|---3--5-----------------------------------------3h4h5-5-------------------------5--3-5---|
E|-----------3--------------3-----------------------------3-------------3------------------|

There is a slight variation at 3:03 where you go to start after first hammer-ons




[Verse]
    P.M.--------------------------------------------------|
E|--------------------------------------------------------|
B|--------------------------------------------------------|
G|--------------------------------------------------------|
D|--------------------------------------------------------|
A|------------------------5-------------------------------|
E|--0-1-2-3-3-1--3--1--3---5--0-1-2-3-3-1--3--1--3--1-3---|




[Interlude/Outro] (This one is not exact)
E|--------------------------------------------------------------------------------------|
B|--------------------------------------------------------------------------------------|
G|--10----------------------------------------------------------------------------------|
D|------8--8/10--8-X-10-X-10-X-8-8/10-X-8-X-10-10/12--8--5--3-X-5-X-5-X-3-X-3/5--3-X-5--|
A|--------------------------------------------------------------------------------------|
E|--------------------------------------------------------------------------------------|

E|-------------------------------------------------------------------------------|
B|-------------------------------------------------------------------------------|
G|--10---------------------------------------------------------------------------|
D|------8--8/10--8-X-10-X-10-X-8-8/10-X-8-X-10-10/12--8--5--3-X-5-X-5-X-3-X-3/5--|
A|-------------------------------------------------------------------------------|
E|-------------------------------------------------------------------------------|

B|-------------------------------------|
B|-------------------------------------|
G|-------------------------------------|
D|--(3)-(X)-(3)-(X)-(3)-(X)-(3)-X-3/5--|
A|-------------------------------------|
E|-------------------------------------|
Repeat X4

B|--------------------------------------------------|
B|--15-15-15-15--15--15--15--X-15-------------------|
G|--14-14-14-14--14--14--14--X-14-------------------|
D|--12-12-12-12--12--12--12--X-12-------------------|
A|---------------------------------------------13\--|
E|--------------------------------------------------|
            
Submit corrections

↑ Back to top | Tablatures and chords for acoustic guitar and electric guitar, ukulele, drums are parodies/interpretations of the original songs. You may use it for private study, scholarship, research or language learning purposes only