Home » R » Rich Mullins »

Rich Mullins - Awesome God Bass

Artists:  A B C D E F G H I J K L M N O P Q R S T U V W X Y Z # 

Awesome God Bass

(ver. 1) Click to play this song!
Rich Mullins
 Rating:
4/5 (4 votes)
                -------------------------------------------------------------------------------
-------------------------------------------------------------------------------


Tuning: Normal

If you listen to the song, this is not the bass tab from the exact song but my friend 

Intro:
G|---------------------------------------------------------------------------|
D|---------------------------------------------------------------------------|
A|5-5-55---------------------------5-5-55--------2-22-44---------------------|
E|-------5-5-55-0-0-00-222-2-2-2---------5-5-55---------222-0-222-0-222-4-222|

Verse:
G|----------------------------------------------------------------------------------------------|
D|----------------------------------------------------------------------------------------------|
A|222222222222-2-22-44--------2222222222222-44444444444-222222222222-44444444444-2-22-44--------|
E|------------------------222------------------------------------------------------------2-22-22|

The intro is also the chorus so play it for the chorus
Then repeat the verse

After the second verse comes the chorus/intro twice and on the third time you   play this:
G|--------------------------------------|
D|--------------------------------------|
A|5--------------5-------2-22-44--------|
E|---5--0--2222-----5--0---------2-22-22|

After that you play this four times
G|---------------|
D|---------------|
A|2-22-44--------|
E|--------2-22-22|

Play the same thing one more time but slow it with the music as the song ends.

When you sing you pray twice, and this is a great worship song. Just sing for His glory.

-patsfb78
p.s. go easy on me it my first one haha

===============================================================================
            
Submit corrections

↑ Back to top | Tablatures and chords for acoustic guitar and electric guitar, ukulele, drums are parodies/interpretations of the original songs. You may use it for private study, scholarship, research or language learning purposes only