» » »

Riblja Corba - U Dva Ce Cistaci Tabs

Artists:  A B C D E F G H I J K L M N O P Q R S T U V W X Y Z # 

U Dva Ce Cistaci Tabs

(ver. 1) Click to play this song!
Riblja Corba
 Rating:
4/5 (4 votes)

 U Dva Ce Cistaci lessons Tabs too difficult? Try these video lessons and learn fast
 
                
Dm C B A

|-5-4-3-5s0-----------|-10-9-10-8-10-8----------------|
|-6---------5---------|-10-------------10-8-10-10-8---|
|-7-----------7-5-7-5-|-10-------------------------9--|
|-7-------------------|-------------------------------|
|---------------------|-------------------------------|
|---------------------|-------------------------------|

 Dm    C
 Nocni program na radiju
 B          A
 u kujni su buba-svabe
 Dm            C
 Voda kaplje u lavabo
 B             A
 sve je ovo bilo dzabe

 F          Gm
 Soba puna ocajanja
 B             A
 nemam kuda ni da bezim
 F          Gm
 Dozivotno ista sranja
 B            A
 pokraj tebe mrtav lezim


   B      Am       Gm      F
U dva ce cistaci odneti djubre
   B      Am       Gm      F
U tri ce doneti jogurt i mleko
   B       Am      Gm   F
U sest ces krenuti na posao
  G A                  Dm C B A
U osam cu biti daleko.

 Gledas osmeh na mom licu,
 Nemas pojma sta on krije
 Poslacu ti razglednicu,
 Pozdrav iz Tunguzije

|-------------|---------|---------------------------------|---------|
|-10-9-8-10s0-|---------|-10-9-8--------------------------|---------|
|-------------|---------|--------11-10-9------------------|---------|
|-------------|-7--6s7-5|----------------12-11-10---------|-7--6s7-5|
|-------------|---------|-------------------------12-11-10|---------|
|-------------|---------|---------------------------------|---------|
            
Submit corrections


        U Dva Ce Cistaci lessons Hard to play? Try these video lessons and learn fast U Dva Ce Cistaci lessons
        
↑ Back to top | Tablatures and chords for acoustic guitar and electric guitar, ukulele, drums are parodies/interpretations of the original songs. You may use it for private study, scholarship, research or language learning purposes only