Home » R » Riblja Corba »

Riblja Corba - Na Zapadu Nista Novo Bass

Artists:  A B C D E F G H I J K L M N O P Q R S T U V W X Y Z # 

Na Zapadu Nista Novo Bass

(ver. 1) Click to play this song!
Riblja Corba
Intro: Bubanj

Strofa
                                  Riff
G|-------------------------------|-9-7h9p7/5---5-------|
D|-------------------------------|-----------7---7-----|
A|-------------------------------|---------------------|
E|-5-----------------------------|---------------------|
   Kriticar pesnika javno vredja
   Samoubica se ubio s ledja
   U Africi opet drzavni udar
   Umorni Turcin izazv'o sudar

Refren

G|-------------------------------------------------------------------|
D|-------------------------------------------------------------------|
A|-------------------------------------------333333333---------------|
E|-55555555555-111111111111-33333333333-5555-------------------------| 
   Bice bolje, neko vice
   Na papiru mrtvo slovo
   Na istoku stare price

G|-------------------------|
D|-------------------------|
A|-------------------------| 3X
E|-3--5--3--5--3-----------|
   Na zapadu nista novo


Pratnja za sve solaze je ista kao u refrena.
Bilo bi dobro kad bi tokom sviranja refrena malo mutirali zice.
            
Submit corrections

↑ Back to top | Tablatures and chords for acoustic guitar and electric guitar, ukulele, drums are parodies/interpretations of the original songs. You may use it for private study, scholarship, research or language learning purposes only