Home » R » Riblja Corba »

Riblja Corba - Kad Hodas Chords

Artists:  A B C D E F G H I J K L M N O P Q R S T U V W X Y Z # 

Kad Hodas Chords
Version #1
Riblja Corba


Copy URL
[Intro]
 
E||--17-16---14------------------------------------------------|
B||----------------14-17-------14-17----15--14----14-----------|
G||-------------------------16-----------------16----16-14-----|
D||--------------------------------------------------------16--|
A||------------------------------------------------------------|
E||------------------------------------------------------------|
 
 
E||--22--21--19-21-19---------21---21------------------||
B||-------------------22-19--------24--22--------------||
G||---------------------------------------21----18-19--||
D||----------------------------------------------------||
A||----------------------------------------------------||
E||----------------------------------------------------||
 
[Verse 1]
F       Am        C         Dm
Vece ne mirise na rakove i skoljke
F        Am          C      Dm
Mesec je bleda fleka boje cimeta
F      Am        C             Dm
Uzimas cipele za setanje kroz snove
F     Am         C       Dm
Ulica voli ritam tvojih koraka.
 
[Verse 2]
F       Am        C         Dm
Vetar se provlaci kroz nepoznate reci
F        Am          C      Dm
Asfalt se miluje sa tvojim stiklama
F      Am        C             Dm
Suvise mekan da bi mogao da spreci
F     Am         C       Dm
Ovo je vece puno tvojih tragova.
 
[Chorus]
G          D          G
Kad hodas, ne zastajkujes
G      D        G
Zemlju ne dodirujes
G      D         C
A mene ne primecujes
C                  G     D         G
I uporno se trudis da me prode pozuda
G          D            G
Jos drhtim od tvog pogleda
G        D           C
Iz nekih starih razloga
D        D       D
Ne mogu da se sredim.
 
[Solo]
E|------12-12--10-9-------------12-12--10-9-------------12-12-12-10-12-14-15~--|
B|--9~--------------12^-10------------------12^-10-----------------------------|
G|-----------------------------------------------------------------------------|
D|-----------------------------------------------------------------------------|  - 2X
A|-----------------------------------------------------------------------------|
E|-----------------------------------------------------------------------------|
 
[Verse 1]
F       Am        C         Dm
Vece ne mirise na rakove i skoljke
F        Am          C      Dm
Mesec je bleda fleka boje cimeta
F      Am        C             Dm
Uzimas cipele za setanje kroz snove
F     Am         C       Dm
Ulica voli ritam tvojih koraka.
 
[Verse 2]
F       Am        C         Dm
Vetar se provlaci kroz nepoznate reci
F        Am          C      Dm
Asfalt se miluje sa tvojim stiklama
F      Am        C             Dm
Suvise mekan da bi mogao da spreci
F     Am         C       Dm
Ovo je vece puno tvojih tragova.
 
[Chorus]
G          D          G
Kad hodas, ne zastajkujes
G      D        G
Zemlju ne dodirujes
G      D         C
A mene ne primecujes
C                  G     D         G
I uporno se trudis da me prode pozuda
G          D            G
Jos drhtim od tvog pogleda
G        D           C
Iz nekih starih razloga
D        D       D
Ne mogu da se sredim.
 
[Solo]
E|------12-12--10-9-------------12-12--10-9-------------12-12-12-10-12-14-15~-----14-12-10-10/9----|
B|--9~--------------12^-10------------------12^-10----------------------------------------------10-|
G|-------------------------------------------------------------------------------------------------|
D|-------------------------------------------------------------------------------------------------|
A|-------------------------------------------------------------------------------------------------|
E|-------------------------------------------------------------------------------------------------|
 
[Outro]
E|------12-12--10-9-------------12-12--10-9-------------12-12-12-10-12-14-15~--|--0-----5--4--2---2-|
B|--9~--------------12^-10------------------12^-10-----------------------------|--2-------------2---|
G|-----------------------------------------------------------------------------|--2-----------------|
D|-----------------------------------------------------------------------------|--2-----------------|
A|-----------------------------------------------------------------------------|--0-----------------|
E|-----------------------------------------------------------------------------|--0-----------------|
            
Submit corrections

↑ Back to top | Tablatures and chords for acoustic guitar and electric guitar, ukulele, drums are parodies/interpretations of the original songs. You may use it for private study, scholarship, research or language learning purposes only