Home » R » Riblja Corba »

Riblja Corba - Celu Noc Te Sanjam Bass

Artists:  A B C D E F G H I J K L M N O P Q R S T U V W X Y Z # 

Celu Noc Te Sanjam Bass
Version #1
Riblja Corba


Copy URL
Riblja Corba – Celu Noc Te Sanjam

Intro solo pratnja

G|-------------------------|-----------------------------|
D|-------------------------|-----------------------------|
A|-----7--9--9--5--7-----7-|----7--9--9--5--7----77------|
E|-5------------------5----|-5-----------------5---------|

1. Strofa

G|---------------------------------------------------------------|
D|---------------------------------------------------------------|
A|----------7----------------------------------------------------|
E|-5-------------3-----------5-5-7--8------------3--------5------|
   Ako neko hoce skroz da me zajebe onda me samo upita za tebe   
   I ja pocnem    da se prenemazem i ja lazem besomucno lazem

G|--------------|
D|--------------|
A|-5-555--------|
E|--------------|
   I kazem…

G|-------------------------------------------------------------------------|
D|-------------------------------------------------------------------------|
A|-5-55-5-55-----------5-55-5-55-----------5-55-5-55-----------------------|
E|-----------5-55-5-55-----------5-55-5-55-----------5-55-5-5--------------|
   Nikad te nisam mario da sam te vise puta prevario pa zar zbog jedne takve da ginem 

G|------------------------------------------|
D|------------------------------------------|
A|-5-55-5-55-5-55-5555555555555-------------|
E|------------------------------------------|
   I lazem lazem kako zinem

Refren

G|-------------------------------------------------|
D|-------------------------------------------------|
A|------7-77-9-99-9-99-5-55-7-77------7-77---------|
E|-5-55--------------------------5-55--------------|
   Onda se sklanjam u svoju sobu
   I lepo mi je kao u grobu
   Onda se sklanjam u sobu svoju
   I pravim se da su mi sve ovce na broju
   Onda se u svoju sobu sklanjam

G|----------------|
D|----------------|
A|-5--7-----------|
E|-------5--------|
   I celu noc, celu noc te sanjam

Pratnja za glavni solo ide kao pratnja za refren-
Nadam se da je ovo OK…
Tekst mozda nisam potrefio tacno kako bi trebalo da se svira na
bass gitari al skontat cete sami…
            
Submit corrections

↑ Back to top | Tablatures and chords for acoustic guitar and electric guitar, ukulele, drums are parodies/interpretations of the original songs. You may use it for private study, scholarship, research or language learning purposes only