Home » R » Rev Gary Davis »

Rev Gary Davis - Got To Move Tabs

Artists:  A B C D E F G H I J K L M N O P Q R S T U V W X Y Z # 

Got To Move Tabs

(ver. 1) Click to play this song!
Rev Gary Davis


                        You Got To Move
                       Arr. Rev. Gary Davis

He uses palm muting most of the time. This is the basic verse and
refrain in standard tuning.

---5--5--5--5--10--10--7--5--------------------|--------------------------------
---3--3--3--3----------------6--7--------------|--------------------------2-----
---2-------------------------------7--4-----4--|--------------------------2-----
---4-------------------------------------7-----|--0-----0--3--2--0--------2-----
-----------------------------------------------|-----2--------------2--0--------
-----------------------------------------------|--------------------------------

---------|----------------------10--------r--|--------||------2--3--3-----2-----
------3--|---------------10h12------------e--|--------||------3--3--3-----3-----
2--4-----|--------10h11-------------------s--|--------||*-----2--4--4-----2-----
---------|--4--4--------------------------t--|--------||*--4--4--5--5--4--4-----
---------|-----------------------------------|--------||------------------------
---------|-----------------------------------|--------||------------------------
                                              You got to move

5-----2-------|-----2-----2-----2-----2--|--------5--3--5-----3-----------|-----
--------------|--3--3-----3-----3-----3--|-----3-----3-----------3--------|-----
---2-----2h4--|--2--2-----2-----5-----5--|-----4-----4-----------4--4--3--|-----
---4-----4----|--4--4--4--4--4-----4-----|-----5-----5-----------5--5--5--|-----
--------------|--------------0-----0-----|--------------------------5--5--|-----
--------------|--------------------------|--3-----3--------3--------------|-----

    You got to move             You got to move                     oh


2--2--5--2----------2--2--2--2--|--5--5--5--5--10--10--7--5---------------------
3--3-------------3--3--3--3--3--|--3--3--3--3----------------6--7---------------
2--2--------2h4-----2-----------|--2-------------------------------7--4---------
4--4----------------4-----------|--4-------------------------------------7------
--------------------------------|-----------------------------------------------
--------------------------------|-----------------------------------------------
move                   When my God

---|--------------------------------|-----2--3--3-----2--3--3--|-----2--3--3----
---|--------------------------2-----|-----3--3--3-----3--3--3--|-----3--3--3----
4--|--------------------------2--0--|-----2--4--4-----2--4--4--|-----2--4--4----
---|--0-----0--3--2--0--------2-----|--4--4--5--5--4--4--5--5--|--4--4--5--5----
---|-----2--------------2--0--------|--------------------------|----------------
---|--------------------------------|--------------------------|----------------
      get ready              You got to move          You may be high (a whore?)


---2--5-----2-------|-----2-----2-----2-----2--|--------------------------------
---3-----3----------|--3--3-----3-----3-----3--|-----3--5/6--3--3--5--3---------
---2-----2-----2h4--|--2--2-----2-----5-----5--|-----4-------4-----------4------
4--4-----4-----4----|--4--4--4--4--4-----4-----|-----5-------5-----------5------
--------------------|--------------0-----0-----|--------------------------------
--------------------|--------------------------|--3-----3----------3------------

          You may be low             You may be rich    You

3-----5-----|--2-----5-----2----------2--2--2--2--|--5--5--5--5--10--10--7------
------------|-----3----------------3--3--3--3--3--|--3--3--3--3-----------------
---------4--|-----2-----2-----2h4--2--2-----------|--2--------------------------
---------5--|--4--4-----4-----4----4--4-----------|--4--------------------------
------------|-------------------------------------|-----------------------------
---3--------|-------------------------------------|-----------------------------

  may be      poor                      brother when God


5-----------------------|--------------------------5------------||--------------
---6--7-----------------|--------------------------2--------3---||--------------
---------7--4-----4-----|--------------------------2--2--4-----*||--------------
---------------7--------|--0-----0--3--2--0--------2-----------*||--------------
------------------------|-----2--------------2--0---------------||--------------
------------------------|---------------------------------------||--------------
                   get    ready                       you got to


You may run, can't be caught
You may hide, can't be found
brother when God get ready
You got to move

You may be old, you may be young
You may be weak, you may be strong
brother when God get ready
You got to move

You may be blind,cannot see
You may be deaf, cannot hear
brother when God get ready
You got to move

That gambler got to move
That gambler got to move
Don't you know he got to move
Yes, move
brother when God get ready
You got to move

Drunkard...
Preacher...
I...

Andrew Shaw
===============================================================
            
Submit corrections

↑ Back to top | Tablatures and chords for acoustic guitar and electric guitar, ukulele, drums are parodies/interpretations of the original songs. You may use it for private study, scholarship, research or language learning purposes only