» » »

Rev Gary Davis - Baby Let Me Lay It On You Tabs

Artists:  A B C D E F G H I J K L M N O P Q R S T U V W X Y Z # 

Baby Let Me Lay It On You Tabs

(ver. 1) Click to play this song!
Rev Gary Davis
 Rating:
4/5 (4 votes)

 Baby Let Me Lay It On You lessons Tabs too difficult? Try these video lessons and learn fast
 
                ---------------------------------------------------------------------------
               Baby, Let Me Lay it on You - Rev. Gary Davis
---------------------------------------------------------------------------

Tuning: Standard




    
E||--3----------------0----|--1-------------------|----------------3--5----|
B||-------------0--3-------|----------------------|-------3--4--5----------|
G||----------3-------------|----------------------|------------------------|
D||-------0-----------0----|-------3---------3----|-------3--4--5----------|
A||------------------------|----------------------|--3---------------------|
E||--3----------3----------|--3---------3---------|------------------------|

                                                         
--6------------------|--7--7--------5--2--------|--3--3--0-----0--0---------|
--5------------------|--8-----------------------|-----------3--------3------|
-------5-------------|--0-----7-----5-----------|---------------------------|
-------5---------0---|-----------0--------------|-----------------------2---|
--3---------3--------|--------------------0-----|-----------------2---------|
---------------------|-----------------------0--|--3-----0------------------|


-----5-----2--3---------|--2-------------------|--3----------------0----|
------------------------|--1-------------------|-------------0--3-------|
------------------------|--2-------------------|----------3-------------|
--------2----------2----|-------0---------0----|-------0-----------0----|
--0-----------0---------|----------------------|------------------------|
------------------------|--2---------2---------|--3----------3----------|

                                                                       
--1-----------------------|--8----------0--3--5----|--6-------------------|
-----------------2--5--1--|-------1--4-------------|--5-------------------|
--------------------------|------------------------|-------5---------5----|
-------0---------2--5-----|------------------------|-------5---------5----|
------------2-------------|------------------------|--3---------3---------|
--3-----------------------|------------------------|----------------------|


--7--7--------5--5--------|--3--3--0-----0--------|-----0--3--0--2-------3--|
--8-----------------------|-----------3-------3---|--------------1----------|
--0-----7-----5-----------|-----------------------|--2-----------2----------|
-----------0--------------|-------------------2---|--------2----------0-----|
--------------------0-----|--------------2--------|--0----------------------|
-----------------------0--|--3-----0--------------|--------------2----------|

              
-----3--------------------|-----0--3--0--2---------|--3----------------||
-----------------3--------|--------------1---------|--0----------------||
--------------------1--2--|--------------2---------|--0----------------||
--------0--1--2-----------|--------2----------0----|--0----------------||
--------------------------|--0---------------------|-------------------||
--3-----------------0-----|--------------2---------|--3----------------||



************************************

| /   slide up
| \   slide down
| h   hammer-on
| p   pull-off
| ~   vibrato
| +   harmonic
| x   Mute note
| b   Bend
| pb  Pre-bend
| br  Bend release
| pbr Pre-bend release
| brb Bend release bend

************************************
            
Submit corrections


        Baby Let Me Lay It On You lessons Hard to play? Try these video lessons and learn fast Baby Let Me Lay It On You lessons
        
↑ Back to top | Tablatures and chords for acoustic guitar and electric guitar, ukulele, drums are parodies/interpretations of the original songs. You may use it for private study, scholarship, research or language learning purposes only