» » »

Replacements - Im In Trouble Tabs

Artists:  A B C D E F G H I J K L M N O P Q R S T U V W X Y Z # 

Im In Trouble Tabs

(ver. 1) Click to play this song!
Replacements
 Rating:
4.1/5 (31 vote)

 Im In Trouble  lessons Tabs too difficult? Try these video lessons and learn fast
 
                Intro
E|--------------------------------|--------------------------------|
B|--------------------------------|--------------------------------|
G|-8/9-9-9-9--8/9-9-9-9-----------|-8/9-9-9-9--8/9-9-9-9-----------|
D|-8/9-9-9-9--8/9-9-9-9--5--4--2--|-8/9-9-9-9--8/9-9-9-9--5--4--2--|
A|-6/7-7-7-7--6/7-7-7-7--5--4--2--|-6/7-7-7-7--6/7-7-7-7--5--4--2--|
E|-----------------------3--2--0--|-----------------------3--2--0--|

E|--------------------------------|--------------------------------|
B|--------------------------------|--------------------------------|
G|-8/9-9-9-9--8/9-9-9-9-----------|-8/9-9-9-9--8/9-9-9-9-----------|
D|-8/9-9-9-9--8/9-9-9-9--5--4--2--|-8/9-9-9-9--8/9-9-9-9--5--4--2--|
A|-6/7-7-7-7--6/7-7-7-7--5--4--2--|-6/7-7-7-7--6/7-7-7-7--5--4--2--|
E|-----------------------3--2--0--|-----------------------3--2--0--|


Verse    ("I Gotta Hide...          I Gotta Run...")
E|--------------------------------|--------------------------------|
B|--------------------------------|--------------------------------|
G|-8/9-9-9-9--8/9-9-9-9-----------|-8/9-9-9-9--8/9-9-9-9-----------|
D|-8/9-9-9-9--8/9-9-9-9--5--4--2--|-8/9-9-9-9--8/9-9-9-9--5--4--2--|
A|-6/7-7-7-7--6/7-7-7-7--5--4--2--|-6/7-7-7-7--6/7-7-7-7--5--4--2--|
E|-----------------------3--2--0--|-----------------------3--2--0--|

E|--------------------------------|--------------------------------|
B|-9/10101010-9/10101010----------|--------------------------------|
G|-8/9-9-9-9--8/9-9-9-9--5--4--2--|-8/9-9-9-9--8/9-9-9-9-----------|
D|-6/7-7-7-7--6/7-7-7-7--5--4--2--|-8/9-9-9-9--8/9-9-9-9--5--4--2--|
A|-----------------------3--2--0--|-6/7-7-7-7--6/7-7-7-7--5--4--2--|
E|--------------------------------|-----------------------3--2--0--|


Chorus  ("Well You Won't Ever...")
E|--------------------------------------------|
B|--------------------------------------------|
G|-9-9--------------------------8/9-9--8/9-9--|
D|-9-9-9-9--1111-9-9--7-7--9-9--8/9-9--8/9-9--|
A|-7-7-9-9--1111-9-9--7-7--9-9--6/7-7--6/7-7--|
E|-----7-7--9-9--7-7--5-5--7-7----------------|

E|-----------------------------|--------------------------------------------|
B|-----------------------------|--------------------------------------------|
G|-9-9-------------------------|--------------------------------------------|
D|-9-9-9-9--1111-9-9--7-7--4-4-|-6/7-7-7-7--6/7-7-7-7--6/7-7-7-7--6/7-7-7-7-|
A|-7-7-9-9--1111-9-9--7-7--4-4-|-6/7-7-7-7--6/7-7-7-7--6/7-7-7-7--6/7-7-7-7-|
E|-----7-7--9-9--7-7--5-5--2-2-|-4/5-5-5-5--4/5-5-5-5--4/5-5-5-5--4/5-5-5-5-|

(Interlude)
E|--------------------------------|--------------------------------|
B|--------------------------------|--------------------------------|
G|-8/9-9-9-9--8/9-9-9-9-----------|-8/9-9-9-9--8/9-9-9-9-----------|
D|-8/9-9-9-9--8/9-9-9-9--5--4--2--|-8/9-9-9-9--8/9-9-9-9--5--4--2--|
A|-6/7-7-7-7--6/7-7-7-7--5--4--2--|-6/7-7-7-7--6/7-7-7-7--5--4--2--|
E|-----------------------3--2--0--|-----------------------3--2--0--|


Verse     ("Spend My Cash...        Waste My Time...")
E|--------------------------------|--------------------------------|
B|--------------------------------|--------------------------------|
G|-8/9-9-9-9--8/9-9-9-9-----------|-8/9-9-9-9--8/9-9-9-9-----------|
D|-8/9-9-9-9--8/9-9-9-9--5--4--2--|-8/9-9-9-9--8/9-9-9-9--5--4--2--|
A|-6/7-7-7-7--6/7-7-7-7--5--4--2--|-6/7-7-7-7--6/7-7-7-7--5--4--2--|
E|-----------------------3--2--0--|-----------------------3--2--0--|

E|--------------------------------|--------------------------------|
B|-9/10101010-9/10101010----------|--------------------------------|
G|-8/9-9-9-9--8/9-9-9-9--5--4--2--|-8/9-9-9-9--8/9-9-9-9-----------|
D|-6/7-7-7-7--6/7-7-7-7--5--4--2--|-8/9-9-9-9--8/9-9-9-9--5--4--2--|
A|-----------------------3--2--0--|-6/7-7-7-7--6/7-7-7-7--5--4--2--|
E|--------------------------------|-----------------------3--2--0--|


Chorus  ("Well You Won't Ever...")
E|--------------------------------------------|
B|--------------------------------------------|
G|-9-9--------------------------8/9-9--8/9-9--|
D|-9-9-9-9--1111-9-9--7-7--9-9--8/9-9--8/9-9--|
A|-7-7-9-9--1111-9-9--7-7--9-9--6/7-7--6/7-7--|
E|-----7-7--9-9--7-7--5-5--7-7----------------|

E|-----------------------------|--------------------------------------------|
B|-----------------------------|--------------------------------------------|
G|-9-9-------------------------|--------------------------------------------|
D|-9-9-9-9--1111-9-9--7-7--4-4-|-6/7-7-7-7--6/7-7-7-7--6/7-7-7-7--6/7-7-7-7-|
A|-7-7-9-9--1111-9-9--7-7--4-4-|-6/7-7-7-7--6/7-7-7-7--6/7-7-7-7--6/7-7-7-7-|
E|-----7-7--9-9--7-7--5-5--2-2-|-4/5-5-5-5--4/5-5-5-5--4/5-5-5-5--4/5-5-5-5-|


Bridge  ("I'm In...         You're In...             I'm In...                You're In... Trouble!")
E|-----------------------|-----------------------|-----------------------|------------------------------|
B|-----------------------|-----------------------|-----------------------|------------------------------|
G|----------8/9-9--8/9-9-|----------8/9-9--8/9-9-|----------8/9-9--8/9-9-|---------------------8/9------|
D|-9-9--7-7-8/9-9--8/9-9-|-9-9--7-7-8/9-9--8/9-9-|-9-9--7-7-8/9-9--8/9-9-|-9-9--7-7--5-5--4--2-8/9------|
A|-9-9--7-7-6/7-7--6/7-7-|-9-9--7-7-6/7-7--6/7-7-|-9-9--7-7-6/7-7--6/7-7-|-9-9--7-7--5-5--4--2-6/7------|
E|-7-7--9-9--------------|-7-7--9-9--------------|-7-7--9-9--------------|-7-7--9-9--3-3--2--0----------|


Solo
E|--------------------------------|--------------------------------|
B|--------------------------------|--------------------------------|
G|-8/9-9-9-9--8/9-9-9-9-----------|-8/9-9-9-9--8/9-9-9-9-----------|
D|-8/9-9-9-9--8/9-9-9-9--5--4--2--|-8/9-9-9-9--8/9-9-9-9--5--4--2--|
A|-6/7-7-7-7--6/7-7-7-7--5--4--2--|-6/7-7-7-7--6/7-7-7-7--5--4--2--|
E|-----------------------3--2--0--|-----------------------3--2--0--|

E|--------------------------------|--------------------------------|
B|--------------------------------|--------------------------------|
G|-8/9-9-9-9--8/9-9-9-9-----------|-8/9-9-9-9--8/9-9-9-9-----------|
D|-8/9-9-9-9--8/9-9-9-9--5--4--2--|-8/9-9-9-9--8/9-9-9-9--5--4--2--|
A|-6/7-7-7-7--6/7-7-7-7--5--4--2--|-6/7-7-7-7--6/7-7-7-7--5--4--2--|
E|-----------------------3--2--0--|-----------------------3--2--0--|


Bridge  ("I'm In...         You're In...            I'm In...               You're In...")
E|-----------------------|-----------------------|-----------------------|----------|
B|-----------------------|-----------------------|-----------------------|----------|
G|----------8/9-9--8/9-9-|----------8/9-9--8/9-9-|----------8/9-9--8/9-9-|----------|
D|-9-9--7-7-8/9-9--8/9-9-|-9-9--7-7-8/9-9--8/9-9-|-9-9--7-7-8/9-9--8/9-9-|-9-9--7-7-|
A|-9-9--7-7-6/7-7--6/7-7-|-9-9--7-7-6/7-7--6/7-7-|-9-9--7-7-6/7-7--6/7-7-|-9-9--7-7-|
E|-7-7--9-9--------------|-7-7--9-9--------------|-7-7--9-9--------------|-7-7--9-9-|

  ("Trouble!...                     Trouble!...")
E|--------------------------------|--------------------------------|
B|--------------------------------|--------------------------------|
G|-8/9-9-9-9--8/9-9-9-9-----------|-8/9-9-9-9--8/9-9-9-9-----------|
D|-8/9-9-9-9--8/9-9-9-9--5--4--2--|-8/9-9-9-9--8/9-9-9-9--5--4--2--|
A|-6/7-7-7-7--6/7-7-7-7--5--4--2--|-6/7-7-7-7--6/7-7-7-7--5--4--2--|
E|-----------------------3--2--0--|-----------------------3--2--0--|

E|--------------------------------|--------------------------------|
B|--------------------------------|--------------------------------|
G|-8/9-9-9-9--8/9-9-9-9-----------|-8/9-9-9-9--8/9-9-9-9-----------|
D|-8/9-9-9-9--8/9-9-9-9--5--4--2--|-8/9-9-9-9--8/9-9-9-9--5--4--2--|
A|-6/7-7-7-7--6/7-7-7-7--5--4--2--|-6/7-7-7-7--6/7-7-7-7--5--4--2--|
E|-----------------------3--2--0--|-----------------------3--2--0--|


Verse   ("I Gotta Hide              I Gotta Run...")
E|--------------------------------|--------------------------------|
B|--------------------------------|--------------------------------|
G|-8/9-9-9-9--8/9-9-9-9-----------|-8/9-9-9-9--8/9-9-9-9-----------|
D|-8/9-9-9-9--8/9-9-9-9--5--4--2--|-8/9-9-9-9--8/9-9-9-9--5--4--2--|
A|-6/7-7-7-7--6/7-7-7-7--5--4--2--|-6/7-7-7-7--6/7-7-7-7--5--4--2--|
E|-----------------------3--2--0--|-----------------------3--2--0--|

E|--------------------------------|--------------------------------|
B|-9/10101010-9/10101010----------|--------------------------------|
G|-8/9-9-9-9--8/9-9-9-9--5--4--2--|-8/9-9-9-9--8/9-9-9-9-----------|
D|-6/7-7-7-7--6/7-7-7-7--5--4--2--|-8/9-9-9-9--8/9-9-9-9--5--4--2--|
A|-----------------------3--2--0--|-6/7-7-7-7--6/7-7-7-7--5--4--2--|
E|--------------------------------|-----------------------3--2--0--|


Chorus   ("You Won't Ever...")
E|--------------------------------------------|
B|--------------------------------------------|
G|-9-9--------------------------8/9-9--8/9-9--|
D|-9-9-9-9--1111-9-9--7-7--9-9--8/9-9--8/9-9--|
A|-7-7-9-9--1111-9-9--7-7--9-9--6/7-7--6/7-7--|
E|-----7-7--9-9--7-7--5-5--7-7----------------|

E|-----------------------------|--------------------------------------------|
B|-----------------------------|--------------------------------------------|
G|-9-9-------------------------|--------------------------------------------|
D|-9-9-9-9--1111-9-9--7-7--4-4-|-6/7-7-7-7--6/7-7-7-7--6/7-7-7-7--6/7-7-7-7-|
A|-7-7-9-9--1111-9-9--7-7--4-4-|-6/7-7-7-7--6/7-7-7-7--6/7-7-7-7--6/7-7-7-7-|
E|-----7-7--9-9--7-7--5-5--2-2-|-4/5-5-5-5--4/5-5-5-5--4/5-5-5-5--4/5-5-5-5-|

E|--------------------------------|
B|--------------------------------|
G|-8/9-9-9-9--8/9-9-9-9-----------|
D|-8/9-9-9-9--8/9-9-9-9--5--2-----|
A|-6/7-7-7-7--6/7-7-7-7--5--2-----|
E|-----------------------3--0-----|            
Submit corrections


        Im In Trouble  lessons Hard to play? Try these video lessons and learn fast Im In Trouble  lessons
        
↑ Back to top | Tablatures and chords for acoustic guitar and electric guitar, ukulele, drums are parodies/interpretations of the original songs. You may use it for private study, scholarship, research or language learning purposes only