» » »

Replacements - Favorite Thing Tabs

Artists:  A B C D E F G H I J K L M N O P Q R S T U V W X Y Z # 

Favorite Thing Tabs

(ver. 1) Click to play this song!
Replacements
 Rating:
4/5 (4 votes)

 Favorite Thing  lessons Tabs too difficult? Try these video lessons and learn fast
 
                Intro Rhythm:
==================================================
e-------------------------------------------------|
B---------3--3--------3--3------------------------|
G---------2--2--------2--2------------------------|
D---5-4-2-0--0--5-4-2-0--0--5-4-2-7--9--5~--------|
A---3-2-0-------3-2-0-------3-2-0-5--7--3~--------|
E-------------------------------------------------|
==================================================
Intro Lead:
==================================================
e---------------------10-\-------------------------|
B---------10------x-x-10b\----x-x------------------|
G---------11b-----x-x---------x-x------------------|
D--------------------------------------------------|
A---------------------------------------------/12\-|
E--------------------------------------------------|
==================================================

Verse Intro, Lead, with some mandatory sloppiness:
====================================================================
e--------------------------------------------------------------------|
B-------------------------------------------0-3-3-0----8~------------|
G---------------------------------------0-2---------/7-7~-2pb3r2-2p0-|
D-------------------------------0---0-2------------------------------|
A-----------0-0-0-0-2-2-2-2-0-0-0~-----------------------------------|
E-2s3-3-3-3----------------------------------------------------------|
====================================================================

Verse
=====================================================================
e--------------------------------------------------------------------|
B-------------------------------------------------------------3------|
G------------------------------------------------------4--2-2-2------|
D---------------------------------------------------5--4--2-2-0------|
A-----------------------2-3-5-2-3-5-----------------3--2--0-0--------|
E-2h3-3-3-2h3-3-3-2h3-3-------------2h3-3-3-2h3-3-3------------------|
=====================================================================
...ends on an E5. The cool little thing at 0:58 ("Wanna' be anything")
 is just a slight bend and release on the F#.

Pre-chorus, I guess? Parentheses separate the left and right guitar tracks,
only difference being that Bob plays octaves while Paul slams power chords.
=====================================================================
e--------------------------------------------------------------------|
B-----------------------------------------3~-------------------------|
G-7--7-5--5-4--4-2---5--5-5-4--4-4-2--2-2-2~-------------------------|
D-------------------(5)(5-5-4)(4-4-2)(2-2)0~-------------------------|
A-5--5-3--3-2--2-0---3--3-3-2--2-2-0--0-0----------------------------|
E--------------------------------------------------------------------|
=====================================================================

Solo, guitar 1
=====================================================================
e---------5-------------------10-------------------------------------|
B----7-8--8b10--8-7-/8-10-12--13b15--13-12---------------------------|
G-/9-----------------------------------------------------------------|
D--------------------------------------------------------------------|
A--------------------------------------------------------------------|
E--------------------------------------------------------------------|
=====================================================================
=====================================================================
e---------5-------------------10-------------------------------------|
B----7-8--8b10--8-7-/8-10-12--13b15r13-12-10-10s12~------------------|
G-/9-----------------------------------------------------------------|
D--------------------------------------------------------------------|
A--------------------------------------------------------------------|
E--------------------------------------------------------------------|
=====================================================================

Solo, guitar 2
=====================================================================
e-----------12---------------------17--------------------------------|
B----12-13--15b17--15-13-/15-17-19-20b22-20-19-----------------------|
G-/14----------------------------------------------------------------|
D--------------------------------------------------------------------|
A--------------------------------------------------------------------|
E--------------------------------------------------------------------|
=====================================================================
=====================================================================
e-----------12---------------------17----17----17--------------------|
B----12-13--15b17--15-13-/15-17-19-20b22-20b22-20b22~----------------|
G-/14----------------------------------------------------------------|
D--------------------------------------------------------------------|
A--------------------------------------------------------------------|
E--------------------------------------------------------------------|
=====================================================================
Rhythm chugs E, G, E, C, B, A, D once, then E, G, E, C, B, A, C, B, A,
hammers on to B.

Chorus:
=====================================================================
e--------------------------------------------------------------------|
B-0-0-0-0-0-0-0-0-0-0-0-0-0-0-0-0-0-0-0-0-0-0-0-0-0-0-0-0-0-0-0-0----|
G-7-7-7-7-5-5-5-5-4-4-4-4-2-2-2-2-5-5-5-5-4-4-4-4-2-2-2-2-2-2s4-4----|
D--------------------------------------------------------------------|
A--------------------------------------------------------------------|
E--------------------------------------------------------------------|
=====================================================================
Second time around, he throws in an open E instead of B occasionally.
Listen for it!            
Submit corrections


        Favorite Thing  lessons Hard to play? Try these video lessons and learn fast Favorite Thing  lessons
        
↑ Back to top | Tablatures and chords for acoustic guitar and electric guitar, ukulele, drums are parodies/interpretations of the original songs. You may use it for private study, scholarship, research or language learning purposes only