» » »

Replacements - Customer Chords

Artists:  A B C D E F G H I J K L M N O P Q R S T U V W X Y Z # 

Customer Chords

(ver. 1) Click to play this song!
Replacements
 Rating:
4.3/5 (10 votes)

 Customer  lessons Tabs too difficult? Try these video lessons and learn fast
 
                [Chorus]
N.C.
I'm in love with the girl who works at the store where I'm nothing but a...
C5   D5   E5
Customer
      C5   D5   E5
I'm a customer
      C5   D5   E5
I'm a customer
      C5   D5   E5
I'm a customer


[Verse]
N.C.              C5   D5   E5 
I Buy cigarettes
N.C.               C5   D5   E5
I'll take sugarless
N.C.                C5   D5   E5 
You sell Wondermint?
                   

[Chorus]
      C5   D5   E5
I'm a customer
      C5   D5   E5
I'm a customer
      C5   D5   E5
I'm a customer


[Verse]
N.C.                  C5   D5   E5
Yeah, can I get change?
N.C.                  C5   D5   E5
Where're the twinkies?
N.C.                  C5   D5   E5
What's on sale? 


[Chorus]
      C5   D5   E5
I'm a customer
      C5   D5   E5
I'm a customer
      C5   D5   E5
I'm a customer


[Solo]   
C5   D5   E5   D5  x12


[Chorus]
      C5   D5   E5
I'm a customer
      C5   D5   E5
I'm a customer
      C5   D5   E5
I'm a customer
N.C.
I'm in love with the girl who works at the store where I'm nothing but 
C5   D5   E5
A customer
      C5   D5   E5
I'm a customer
      C5   D5   E5
I'm a customer





[Chorus-Verse]                            
e|-------------------------------------|     
b|-------------------------------------|     
G|-5-5-5-5---7-7-7-7---9-9-9-9-9-9-9-9-|      
D|-5-5-5-5---7-7-7-7---9-9-9-9-9-9-9-9-|      
A|-3-3-3-3---5-5-5-5---7-7-7-7-7-7-7-7-|     
E|-------------------------------------|     
   C5        D5        E5                       
 
[Solo]
e|---------------------------------------|
b|---------------------------------------|
G|-5-5-5-5---7-7-7-7---9-9-9-9---7-7-7-7-|
D|-5-5-5-5---7-7-7-7---9-9-9-9---7-7-7-7-|
A|-3-3-3-3---5-5-5-5---7-7-7-7---5-5-5-5-|
E|---------------------------------------|
 C5        D5        E5        D5
            
Submit corrections


        Customer  lessons Hard to play? Try these video lessons and learn fast Customer  lessons
        
↑ Back to top | Tablatures and chords for acoustic guitar and electric guitar, ukulele, drums are parodies/interpretations of the original songs. You may use it for private study, scholarship, research or language learning purposes only