» » »

Rend Collective Experiment - Your Royal Blood Tabs

Artists:  A B C D E F G H I J K L M N O P Q R S T U V W X Y Z # 

Your Royal Blood Tabs

(ver. 1) Click to play this song!
Rend Collective Experiment
 Rating:
3.2/5 (30 votes)

 Your Royal Blood  lessons Tabs too difficult? Try these video lessons and learn fast
 
                Intro:

e|---------------------------------------------------------------------------|
B|---------------------------------------------------------------------------|
G|-----0------------------0--------------------------------------------------|
D|-0h2----2-2p0-------0h2----2-2p0-------------------------------------------|
A|--------------2-------------------2----------------------------------------|
E|---------------------------------------------------------------------------|

Verse 1

e|---------------------------------------------------------------------------|
B|---------------------------------------------------------------------------|
G|---------------------------------------------------------------------------|
D|--------------------------------0----2p0-0---------------------------------|
A|-------0h2-3-2---------0h2-3-2----2--------2-2p0----0-0-0h2p0--------------|
E|-3-3-3----------3-3-3----------------------------3------------3-3----------|

Verse 2

e|--------------------------------------------------------------------------------------------------|
B|--------------------------------------------------------------------------------------------------|
G|--------------------------------------------------------------------------------------------------|
D|------------------------------------------------0----2p0-0----------------------------------------|
A|-------0h2-3-2-2h3p2p0--------0h2-3-2--2h3p2p0---2--------2-2p0----0-0-0-2p0-------0-0-0-2p0------|
E|-3-3-3-----------------3-3-3------------------------------------3------------3-3-------------3-3--|

Chorus

e|---------------------------------------------------------------------------|
B|---------0--------------------0-------------0---------------0--------------|
G|-2-0-0-0---2-0-0----0-0-0-0-0---2-0-0-0-0-0----2-0-0---0-0----2p0-0--------|
D|-----------------2-----------------------------------2---------------------|
A|---------------------------------------------------------------------------|
E|---------------------------------------------------------------------------|

interlude

e|---------------------------------------------------------------------------|
B|---------------------------------------------------------------------------|
G|-----0------------------0--------------------------------------------------|
D|-0h2----2-2p0-------0h2----2-2p0-------------------------------------------|
A|--------------2-------------------2----------------------------------------|
E|---------------------------------------------------------------------------|

Verse 3

e|-----------------------------------------------------------------------------------------|
B|--------0-0-1-0----------0-0-1-0-------3-0-5-3-3-0-0------------0--------------0---------|
G|-0-0-2-------------0-0-2---------2-0-----------------2p0--2-2-2---2p0-0--2-2-2---2p0-0---|
D|-----------------------------------------------------------------------------------------|
A|-----------------------------------------------------------------------------------------|
E|-----------------------------------------------------------------------------------------|

Chorus

e|---------------------------------------------------------------------------|
B|---------0--------------------0-------------0---------------0--------------|
G|-2-0-0-0---2-0-0----0-0-0-0-0---2-0-0-0-0-0----2-0-0---0-0----2p0-0--------|
D|-----------------2-----------------------------------2---------------------|
A|---------------------------------------------------------------------------|
E|---------------------------------------------------------------------------|

e|---------------------------------------------------------------------------|
B|---------0--------------------0-------------0---------------0--------------|
G|-2-0-0-0---2-0-0----0-0-0-0-0---2-0-0-0-0-0----2-0-0---0-0----2p0-0--------|
D|-----------------2-----------------------------------2---------------------|
A|---------------------------------------------------------------------------|
E|---------------------------------------------------------------------------|

interlude

e|---------------------------------------------------------------------------|
B|---------------------------------------------------------------------------|
G|-----0------------------0--------------------------------------------------|
D|-0h2----2-2p0-------0h2----2-2p0-------------------------------------------|
A|--------------2-------------------2----------------------------------------|
E|---------------------------------------------------------------------------|

Bridge

e|---------------------------------------------------------------------------|
B|-0-0-0---1-0-0-----------1-0-0---0-0-0---1-0-0-------0---------------------|
G|-------0---------2-2-2-0---------------0-------2-2-2---2p0-0---------------|
D|---------------------------------------------------------------------------|
A|---------------------------------------------------------------------------|
E|---------------------------------------------------------------------------|

e|-----------------------------------------------------------------------------------------------|
B|-0-0-0---1-0-0-----------1-0-0---0-0-0---1-0-0-------0--------------0--------------------------|
G|-------0---------2-2-2-0---------------0-------2-2-2---2p0-0---2-2-2--2p0-0--------------------|
D|-----------------------------------------------------------------------------------------------|
A|-----------------------------------------------------------------------------------------------|
E|-----------------------------------------------------------------------------------------------|

e|-----------------------------------------------------------------------------------------------|
B|-----------2------------------2-------------2--------------2-------------2------------2--------|
G|--2-2-2-2----4-2-2----2-2-2-2---4--2-2-2-2----4-2-2---2-2-----4p2-2--2-2---4-2-2--2-2---4p2-2--|
D|-------------------4--------------------------------4------------------------------------------|
A|-----------------------------------------------------------------------------------------------|
E|-----------------------------------------------------------------------------------------------|

e|-------------------------------------------------------------------------------------------|
B|-------------------------------------------------------------------------------------------|
G|----2---------------2-------------2-------------2-------------2-------------2--------------|
D|--4---4-4-2-4-----4---4-4-2-4---4---4-4-2-4---4---4-4-2-4---4---4-4-2-4---4---4-4-2-4------|
A|-------------------------------------------------------------------------------------------|
E|-------------------------------------------------------------------------------------------|
************************************
| /   slide up
| \   slide down
| h   hammer-on
| p   pull-off
************************************
Capo5 G

Intro (x2): Em | C - G


Verse 1:
Em       C         G
What can wash away my sin?
Em       C             G
What can make me whole again?
Em       C             G
What can make me white as snow?
Am               C     G
Nothing but Your royal blood


Verse 2:
Em       C              G
What can heal the heart of stone?
Em       C         G
What can resurrect these bones?
Em         C            G
There's no other fount I know
Am          C          G
Nothing but Your royal blood
Am          C          G 
Nothing but Your royal blood


Chorus:
     C          G     D        Em
Your blood will never lose its power
     C          G      D
Your blood will never lose
     C    G       D           Em
Your victory will stand for - ever
     C     D           Em   C - G     Em   C - G 
Your blood will never lose


Verse 3:
Em       C        G
This was won upon the cross
Em       C          G
This was written on His scars
Em       C       G
This has made us conquerors
Am          C          G
Nothing but Your royal blood
Am          C          G 
Nothing but Your royal blood


Chorus (x2):
     C          G     D        Em
Your blood will never lose its power
     C          G      D
Your blood will never lose
     C    G       D           Em
Your victory will stand for - ever
     C     D           G ( the second time = Em | C - G [x2] )
Your blood will never lose



Bridge:
G                 C   G
Now by this we'll overcome
D                 C         G
Now by this we'll reach our home
Em              C         G
Now our sin and shame are gone
Am           C       G
Only by Your royal blood

G                 C   G
Now by this we'll overcome
D                 C         G
Now by this we'll reach our home
Em              C         G
Now our sin and shame are gone
Am           C       G
Only by Your royal blood
Am           C       G
Only by Your royal blood


Chorus (key change):
     D          A     E        F#m
Your blood will never lose its power
     D          A      E
Your blood will never lose
     D    A       E           F#m
Your victory will stand for - ever
     D     E           F#m
Your blood will never lose
     D     E           F#m
Your blood will never lose
     D     E           F#m   D - A     F#m   D - A
Your blood will never lose            
Submit corrections


        Your Royal Blood  lessons Hard to play? Try these video lessons and learn fast Your Royal Blood  lessons
        
↑ Back to top | Tablatures and chords for acoustic guitar and electric guitar, ukulele, drums are parodies/interpretations of the original songs. You may use it for private study, scholarship, research or language learning purposes only