Home » R » Remy Zero »

Remy Zero - Belong Tabs

Artists:  A B C D E F G H I J K L M N O P Q R S T U V W X Y Z # 

Belong Tabs

(ver. 1) Click to play this song!
Remy Zero
[Intro]
 
e|3-3-3--3--3-3---2--2--2-2--0-0--0--0-0--2-2--2--202-|
B|3-3-3--3--3-3---3--3--3-3--3-3--3--3-3--3-3--3--3-3-|
G|0-0-0--0--0-0---0--0--0-0--0-0--0--0-0--0-0--0--0-0-|
D|0-0-0--0--0-0---0--0--0-0--2-2--2--2-2--0-0--0--0-0-|
A|2-2-2--2--2-2---x--x--x-x--2-2--2--2-2--x-x--x--x-x-|
E|3-3-3--3--3-3---2--2--2-2--0-0--0--0-0--2-2--2--2-2-|
 
e|-3--3--3-7--2--2--202--|
B|-3--3--3----3--3--3-3--|
G|-0--0--0----0--0--0-0--| X3
D|-2--2--2----0--0--0-0--|
A|-3--3--3----x--x--x-x--|
E|---------7--2--2--2-2--|
 
 
[Verse 1]
 
e|3--3--3-3--2--2--2-2--0-0--0--0-0--2-2--2--202-|
B|3--3--3-3--3--3--3-3--3-3--3--3-3--3-3--3--3-3-|
G|0--0--0-0--0--0--0-0--0-0--0--0-0--0-0--0--0-0-| X2
D|0--0--0-0--0--0--0-0--2-2--2--2-2--0-0--0--0-0-|
A|2--2--2-2--x--x--x-x--2-2--2--2-2--x-x--x--x-x-|
E|3--3--3-3--2--2--2-2--0-0--0--0-0--2-2--2--2-2-|
 
e|-3--3--3-7--2--2--202--|
B|-3--3--3----3--3--3-3--|
G|-0--0--0----0--0--0-0--| X2
D|-2--2--2----0--0--0-0--|
A|-3--3--3----x--x--x-x--|
E|---------7--2--2--2-2--|
 
 
[Chorus]
 
e|-2--2--3-0-0--0-0-0---0--0--0-0--0--0---77787--|
B|-3--3--3---3--3-3-3---3--3--3-3--3--3---88888--|
G|-0--0--0---0--0-0-0---2--2--2-2--2--2----------| x3
D|-2--2--2---2--2-2-2---2--2--2-2--2--2----------|
A|-2--2--2---3--3-3-3---0--0--0-0--0--0----------|
E|-0--0--0---------------------------------------|
 
e|-3--3--3-3--2--------------|
B|-3--3--3-3--3--------------|
G|-0--0--0-0--0--------------|
D|-2--2--2-2--0--------------|
A|-3--3--3-3--x--------------|
E|------------2--------------|
 
 
[Verse 2]
 
e|3--3--3-3--2--2--2-2--0-0--0--0-0--2-2--2--202-|
B|3--3--3-3--3--3--3-3--3-3--3--3-3--3-3--3--3-3-|
G|0--0--0-0--0--0--0-0--0-0--0--0-0--0-0--0--0-0-| X2
D|0--0--0-0--0--0--0-0--2-2--2--2-2--0-0--0--0-0-|
A|2--2--2-2--x--x--x-x--2-2--2--2-2--x-x--x--x-x-|
E|3--3--3-3--2--2--2-2--0-0--0--0-0--2-2--2--2-2-|
 
e|-3--3--3-7--2--2--202--|
B|-3--3--3----3--3--3-3--|
G|-0--0--0----0--0--0-0--| X2
D|-2--2--2----0--0--0-0--|
A|-3--3--3----x--x--x-x--|
E|---------7--2--2--2-2--|
 
 
[Chorus]
 
e|-2--2--3-0-0--0-0-0---0--0--0-0--0--0---77787--|
B|-3--3--3---3--3-3-3---3--3--3-3--3--3---88888--|
G|-0--0--0---0--0-0-0---2--2--2-2--2--2----------| x3
D|-2--2--2---2--2-2-2---2--2--2-2--2--2----------|
A|-2--2--2---3--3-3-3---0--0--0-0--0--0----------|
E|-0--0--0---------------------------------------|
 
e|-3--3--3-3--2--------------|
B|-3--3--3-3--3--------------|
G|-0--0--0-0--0--------------|
D|-2--2--2-2--0--------------|
A|-3--3--3-3--x--------------|
E|------------2--------------|
 
 
[Bridge]
 
e|-0----------0----------0----------2----------0----------0--------0--------2---2------|
B|-1----------1----------3----------3----------1----------1--------1--------3---1------|
G|-2----------0----------0----------0----------2----------0--------2--------2---2------|
D|-2----------2----------0----------0----------2----------2--------2--------0---0------|
A|-0----------3----------2----------x----------0----------3--------0-------------------|
E|-----------------------3----------2--------------------------------------------------|
 
e|-3--3--3-7--2--2--202--|
B|-3--3--3----3--3--3-3--|
G|-0--0--0----0--0--0-0--| X3
D|-2--2--2----0--0--0-0--|
A|-3--3--3----x--x--x-x--|
E|---------7--2--2--2-2--|
 
 
[Chorus]
 
e|-2--2--3-0-0--0-0-0---0--0--0-0--0--0---77787--|
B|-3--3--3---3--3-3-3---3--3--3-3--3--3---88888--|
G|-0--0--0---0--0-0-0---2--2--2-2--2--2----------| x3
D|-2--2--2---2--2-2-2---2--2--2-2--2--2----------|
A|-2--2--2---3--3-3-3---0--0--0-0--0--0----------|
E|-0--0--0---------------------------------------|
 
e|-3--3--3-3--2--------------|
B|-3--3--3-3--3--------------|
G|-0--0--0-0--0--------------|
D|-2--2--2-2--0--------------|
A|-3--3--3-3--x--------------|
E|------------2--------------|
 
 
[Outro]
 
e|3--3--3-3--2--2--2-2--0-0--0--0-0--2-2--2--202-|
B|3--3--3-3--3--3--3-3--3-3--3--3-3--3-3--3--3-3-|
G|0--0--0-0--0--0--0-0--0-0--0--0-0--0-0--0--0-0-| X6
D|0--0--0-0--0--0--0-0--2-2--2--2-2--0-0--0--0-0-|
A|2--2--2-2--x--x--x-x--2-2--2--2-2--x-x--x--x-x-|
E|3--3--3-3--2--2--2-2--0-0--0--0-0--2-2--2--2-2-|
            
Submit corrections

↑ Back to top | Tablatures and chords for acoustic guitar and electric guitar, ukulele, drums are parodies/interpretations of the original songs. You may use it for private study, scholarship, research or language learning purposes only