» » »

White Tornado Tabs - R.E.M.

Artists:  A B C D E F G H I J K L M N O P Q R S T U V W X Y Z # 

White Tornado Tabs

(ver. 1) Click to play this song!
4/5 (4 votes)
    White Tornado lessons Tabs too difficult? Try these video lessons and learn fast

# For the latest collection of R.E.M. chords & tab, go to
# If you have any corrections or additions to this file, please email them


                                                       |1st, 3rd, 4th times
e(1) ----------------|----------------|----------------|----------------- ||
B(2) 3-----1-------1-|3-----1-------1-|5-----3---------|5-----3----------:||
G(3) ------------2---|------------2---|----------------|------------4---- ||
     ________________                                         repeat sign^^^
     |2nd time
e(1) 3-3-2-2-0-0-----|
B(2) ------------3-3-|   and on to...
G(3) ----------------|

e(1) || /5---8-5-8-5-8-10b|(11)---(11)---8--------|
B(2) ||:------------------|----------------10-8---|
G(3) || ------------------|---------------------9-|10b-(11)-10-8-----8---|
                                             D(4) |----------------7---7-|

B(2) ---------------------- ||
G(3) 10b-(11)-10-8-----8---:||
D(4) ----------------7---7- ||
Submit corrections

↑ Back to top | Tablatures and chords for acoustic guitar and electric guitar, ukulele, drums are parodies/interpretations of the original songs. You may use it for private study, scholarship, research or language learning purposes only