» » »

R.E.M. - Monty Got A Raw Deal Bass

Artists:  A B C D E F G H I J K L M N O P Q R S T U V W X Y Z # 

Monty Got A Raw Deal Bass

(ver. 1) Click to play this song!
R.E.M.
 Rating:
4.1/5 (31 vote)


 Monty Got A Raw Deal lessons Tabs too difficult? Try these video lessons and learn fast
 
                G|---------|---------|---------|---------|--------|
D|---------|---------|---------|---------|--------|
A|-----1---|-----1---|-----1---|-5-----5-|--------|
E|-3-------|-3-------|-3-------|---------|-3------|

G|---------|---------|---------|----------|--------|
D|---------|---------|---------|*---------|-------*|
A|-----1---|-----1---|-----1---|*-5-5-5-5-|-------*|
E|-3-------|-3-------|-3-------|----------|-3--3---|


VERSE

G|---------|--------|---------|--------|---------|--------|---------|-------|
D|-----0---|--------|-----0---|--------|-----0---|--------|---------|-------|
A|---1---1-|--------|---1---1-|--------|---1---1-|--------|-5-5-5-5-|-------|
G|-3-------|-1---1--|-3-------|-1---1--|-3-------|-1---1--|---------|-3--3--|

G|---------|--------|---------|--------|---------|--------|---------|-------|
D|-----0---|--------|-----0---|--------|-----0---|--------|---------|-------|
A|---1---1-|--------|---1---1-|--------|---1---1-|--------|-5-5-5-5-|-------|
G|-3-------|-1---1--|-3-------|-1---1--|-3-------|-1---1--|---------|-3--3--|

G|---------|---------|---------|mute---|
D|---------|---------|---------|during-|
A|-5-5-5-5-|-------5-|---------|guitar-|
E|---------|-3---3---|-3-------|riff---|



CHORUS

G|---------|--------|------|---------|-------|---------|--------|---------|----|
D|---------|--------|------|---------|-------|---------|--------|---------|----|
A|-----5-5-|------5-|------|-----5-5-|-------|-----5-5-|--------|-----5-3-|----|
E|-6-6-----|-3--3---|-3----|-6-6-----|-3--3--|-6-6-----|-3--3---|-6-6-----|-3--|


VERSE

G|---------|--------|---------|--------|---------|--------|---------|-------|
D|-----0---|--------|-----0---|--------|-----0---|--------|---------|-------|
A|---1---1-|--------|---1---1-|--------|---1---1-|--------|-5-5-5-5-|-------|
G|-3-------|-1---1--|-3-------|-1---1--|-3-------|-1---1--|---------|-3--3--|




G|---------|--------|---------|--------|---------|--------|---------|-------|
D|-----0---|--------|-----0---|--------|-----0---|--------|---------|-------|
A|---1---1-|--------|---1---1-|--------|---1---1-|--------|-5-5-5-5-|-------|
G|-3-------|-1---1--|-3-------|-1---1--|-3-------|-1---1--|---------|-3--3--|

G|---------|---------|---------|---------|---------|---------|---------|mute---|
D|---------|---------|---------|---------|---------|---------|---------|during-|
A|-5-5-5-5-|---------|-5-5-5-5-|---------|-5-5-5-5-|-------5-|---------|guitar-|
E|---------|-3---3---|---------|-3--3----|---------|-3---3---|-3-------|riff---|


CHORUS

G|---------|--------|------|---------|-------|---------|-------|---------|-----|
D|---------|--------|------|---------|-------|---------|-------|---------|-----|
A|-----5-5-|------5-|------|-----5-5-|-------|-----5-5-|-------|-----5-3-|-----|
E|-6-6-----|-3--3---|-3----|-6-6-----|-3--3--|-6-6-----|-3--3--|-6-6-----|-3-3-|


ENDING

G|---------|---------|
D|---------|---------|
A|-----5-3-|---------|
E|-6-6-----|-3-------|
            
Submit corrections



        Monty Got A Raw Deal lessons Hard to play? Try these video lessons and learn fast Monty Got A Raw Deal lessons
        
↑ Back to top | Tablatures and chords for acoustic guitar and electric guitar, ukulele, drums are parodies/interpretations of the original songs. You may use it for private study, scholarship, research or language learning purposes only