» » »

R.E.M. - Little America Bass

Artists:  A B C D E F G H I J K L M N O P Q R S T U V W X Y Z # 

Little America Bass

(ver. 1) Click to play this song!
R.E.M.
 Rating:
4.3/5 (19 votes)


 Little America lessons Tabs too difficult? Try these video lessons and learn fast
 
                
G|---------|------7--|--------|------7--|
D|---------|---------|--------|---------|
A|---------|--5------|--------|--5------|
E|---------|---------|--------|---------|


VERSE
                          [3x]      [4th] 
G|-------------|--------------|------------|---------|-------|
D|*------------|-------------*|------------|---------|-0-2-4-|
A|*-5-5--3-5-5-|-3-0-0-0-7-5-*|-5-5--3-5-5-|-3-0-0-3-|-------|
G|-------------|--------------|------------|---------|-------|


CHORUS

G|-----------|-----------|-----------|----------|
D|-5-5-5-5-4-|-2-2-2-2-4-|-5-5-5-5-4-|-2-2------|
A|-----------|-----------|-----------|------0-0-|
E|-----------|-----------|-----------|----------|


MUTE DURING GUITAR RIFF [4 MEASURES], THEN

VERSE
                          [3x]      [4th] 
G|-------------|--------------|------------|---------|-------|
D|*------------|-------------*|------------|---------|-0-2-4-|
A|*-5-5--3-5-5-|-3-0-0-0-7-5-*|-5-5--3-5-5-|-3-0-0-3-|-------|
G|-------------|--------------|------------|---------|-------|


CHORUS

G|-----------|-----------|-----------|----------|
D|-5-5-5-5-4-|-2-2-2-2-4-|-5-5-5-5-4-|-2-2------|
A|-----------|-----------|-----------|------0-0-|
E|-----------|-----------|-----------|----------|


REPEAT CHORUS [MUTE]


VERSE
                          [3x]      [4th] 
G|-------------|--------------|------------|---------|-------|
D|*------------|-------------*|------------|---------|-0-2-4-|
A|*-5-5--3-5-5-|-3-0-0-0-7-5-*|-5-5--3-5-5-|-3-0-0-3-|-------|
G|-------------|--------------|------------|---------|-------|


CHORUS

G|-----------|-----------|-----------|----------|
D|-5-5-5-5-4-|-2-2-2-2-4-|-5-5-5-5-4-|-2-2------|
A|-----------|-----------|-----------|------0-0-|
E|-----------|-----------|-----------|----------|

G|-----------|-----------|-----------|----------|
D|-5-5-5-5-4-|-2-2-2-2-4-|-5-5-5-5-4-|-2-2------|
A|-----------|-----------|-----------|------0-0-|
E|-----------|-----------|-----------|----------|


END

G|-----------|
D|-5---------|
A|-----------|
E|-----------|            
Submit corrections



        Little America lessons Hard to play? Try these video lessons and learn fast Little America lessons
        
↑ Back to top | Tablatures and chords for acoustic guitar and electric guitar, ukulele, drums are parodies/interpretations of the original songs. You may use it for private study, scholarship, research or language learning purposes only